Bass Tabs
(THIRD DAY) OR BY ARTIST NAME (JENNIFER KNAPP)
0-9|A|B|C|D|E|F|G|H|I|J|K|L|M|N|O|P|Q|R|S|T|U|V|W|X|Y|Z

Join Us Today!

Don't strum alone...
be a part of the largest online Christian music community. Browse thousands of guitar tabs and chat w/ musicians like yourself.


It's Free!

This tab has not yet been rated for accuracy.Sorry, but you must be logged in to rate this tab.
Click here to log-in, or you can click here to register.
(Registration is free)

All songs owned by Integrity and Brentwood-Benson are used by permission. If you make copies of any song on this website, be sure to report your usage to CCLI.
Submitted by: bssplyr5257

Head Over Heels
Switchfoot
Oh! Gravity
Tabbed by Jay Kills

Intro (Bass Comes in after Drums Riff)
G|-----------------------------------------------------------|
D|-----------------------------------------------------------|
A|----------------------------5----------------------------5-|
D|-0-0--0-00-0-5h7-5-5-5-55-57--0-0--0-00-0-5h7-5-5-5-55-57--|

Verse 1
G|-------------------------------------------------------|
D|-------------------------------------------------------|
A|5------------------4h5-----------------22-2------------|
D|--0------55-5----------0------55-5---------------55-5--|

Pre-Chorus ("I was yours")
G|----------------------------------------------------------|
D|----------------------------------------------------------|
A|-4h5------5-4h5////5--------------------------------------|
D|-----0--------------5-5-5-5-7-7-7-7-9-9-9-9-12-12-12-12---|

Chorus
G|------------------------------------------------------------|
D|------------------------------------------------------------|
A|-----------------------------5------------------------------|
D|-0-0--0-00-0-5h7-5-5--5-55-57--0-0--0-00-0-5h7-5-5-5-55-557-|

G|----------------------------------------------------|
D|----------------------------------------------------|
A|----------------------------------------------------|
D|-9-9--9-99-9-11h12--5-5--5-55-55///9~~~~~~~5~~~~~~~~|

Interlude
G|-----------------------------------------|
D|-------------------------5-7-8-8-5h7-4---|
A|-------5-45-5-4h5------5---------------5-|
D|-0-0--------------5-5--------------------|

Verse 2 (Different)
G|----------------------------------------------------------------|
D|------------------5-7-8-8-5h7-4---------------------5-7-8-8-5h7-|
A|-5-45-5-4h5-----5---------------5--5-45-5-4h5-----5-------------|
D|------------5-5-------------------------------5-5---------------|

G|----------------------|
D|----------------------|
A|-2-2----0-0-0-2-------|
D|-----------------5-5--|

Pre-Chorus 2 (Different)
G|------------------------------------------------------------------------|
D|---------7-7-7-7-5-5-5-5-4-4-4-4-2-2-2-2--------------------------------|
A|-5-5-5-5---------------------------------0-0-0-0-2-2-2-2-5-5-5-5--------|
D|------------------------------------------------------------------------|


Chorus 2 (Same)
G|------------------------------------------------------------|
D|------------------------------------------------------------|
A|-----------------------------5------------------------------|
D|-0-0--0-00-0-5h7-5-5--5-55-57--0-0--0-00-0-5h7-5-5-5-55-557-|

G|----------------------------------------------------|
D|----------------------------------------------------|
A|----------------------------------------------------|
D|-9-9--9-99-9-11h12--5-5--5-55-55///9~~~~~~~5~~~~~~~~|


~Breakdown (No Bass)~

Interlude 3 (Head Over Heels)
G|----------------------------------------------------------------------------------|
D|----------------------------------------------------------------------------------|
A|-2-2-2---2-22-2-4h5---------------------2-2-2---2-22-2-4h5------------------------|
D|---------------------5-5-5---5-55-5-5-7--------------------5-5-5---5-55-5-5-7-0~~~|

~Breakdown 2 (No Bass)~ End the breakdown with the 10th fret on the low D then end the song with this:

Chorus 3 (Different)
G|------------------------------------------------------------|
D|------------------------------------------------------------|
A|-----------------------------5----------------------------5-|
D|-0-0--0-00-0-5h7-5-5--5-55-57--0-0--0-00-0-5h7-5-5-5-55-57--|

G|------------------------------------------------------------|
D|------------------------------------------------------------|
A|-----------------------------5------------------------------|
D|-0-0--0-00-0-5h7-5-5--5-55-57--0-0--0-00-0-5h7-5-5-5-55-557-|

G|-----------------------------------------------------------|
D|-----------------------------------------------------------|
A|-----------------------------------------------------------|
D|-9-9--9-99-9-11h12--5-5--5-55-55///9~~~~~~~5~~~~~~~~0~~~~~~|



This s a very easy and fun song, some parts get intricate, but you can do it
Please message or comment me with uggestions for more songs if you like my
tabbing.  Preferrably switchfoot songs off of any album.





Comments about this tab

No comments/corrections found. Add your own

Complimentary Christian Ringtones
Dadamobile and CGR have teamed up to bring your favorite Christian artists right to your phone. Sign up today and get 10 complementary ringtones!
Tab Country
Did you know CGR has a sister site w/ country guitar tabs? Well we do! Its called Tab Country. It has a great archive with a lot of country tabs.
Rockin Tabs
Are you looking for a site that has rock guitar tabs? Then Rockintabs.com is the place for you. It is a budding site with many rock guitar tabs. Submit your tab today.
Tab Gallery
Tab Gallery has a compilation of christian, rock, and country tabs all in one place. Come visit us.