Bass Tabs
(THIRD DAY) OR BY ARTIST NAME (JENNIFER KNAPP)
0-9|A|B|C|D|E|F|G|H|I|J|K|L|M|N|O|P|Q|R|S|T|U|V|W|X|Y|Z

Join Us Today!

Don't strum alone...
be a part of the largest online Christian music community. Browse thousands of guitar tabs and chat w/ musicians like yourself.


It's Free!

This tab has not yet been rated for accuracy.Sorry, but you must be logged in to rate this tab.
Click here to log-in, or you can click here to register.
(Registration is free)

All songs owned by Integrity and Brentwood-Benson are used by permission. If you make copies of any song on this website, be sure to report your usage to CCLI.
Submitted by: Emii

Artist: Bethany Dillon
Album: Waking Up
Song: Let Your Light Shine

Tuning: Normal

Intro:
   E               B               A               E            A
G| ----------------------------------------------------------------------
D| 2-2-2-2-2-2-2-2---------------------------------2-2-2-2-2-2~----------
A| ----------------2-2-2-2-2-2-2-2-0-0-0-0-0-0-0-0--------------2~-------
E| ----------------------------------------------------------------------

Verse 1:
   E               B               A               E
G| ----------------------------------------------------------------------
D| 2-2-2-2-2-2-2-2---------------------------------2-2-2-2-2-2-2-2-------
A| ----------------2-2-2-2-2-2-2-2-0-0-0-0-0-0-0-0-----------------------
E| ----------------------------------------------------------------------
   E               B               A               E
G| ----------------------------------------------------------------------
D| 2-2-2-2-2-2-2-2---------------------------------2-2-2-2-2-2-2-2-------
A| ----------------2-2-2-2-2-2-2-2-0-0-0-0-0-0-0-0-----------------------
E| ----------------------------------------------------------------------

Pre-Chorus:
   F#      A       E       B       F#      A       E    B
G| ----------------------------------------------------------------------
D| ----------------2-2-2-2-------------------------2~--------------------
A| 4-4-4-4-0-0-0-0---------2-2-2-2-4-4-4-4-0-0-0-0------2~---------------
E| ----------------------------------------------------------------------

Chorus:
   E               B               F#              A
G| ----------------------------------------------------------------------
D| 2-2-2-2-2-2-2-2-------------------------------------------------------
A| ----------------2-2-2-2-2-2-2-2-4-4-4-4-4-4-4-4-0-0-0-0-0-0-0-0-------
E| ----------------------------------------------------------------------
   E               B               F#              A
G| ----------------------------------------------------------------------
D| 2-2-2-2-2-2-2-2-------------------------------------------------------
A| ----------------2-2-2-2-2-2-2-2-4-4-4-4-4-4-4-4-0-0-0-0-0-0-0-0-------
E| ----------------------------------------------------------------------

Mid-tro:
   E               B               A               E            A
G| ----------------------------------------------------------------------
D| 2-2-2-2-2-2-2-2---------------------------------2-2-2-2-2-2~----------
A| ----------------2-2-2-2-2-2-2-2-0-0-0-0-0-0-0-0--------------2~-------
E| ----------------------------------------------------------------------

Verse 2:
   E               B               A               E
G| ----------------------------------------------------------------------
D| 2-2-2-2-2-2-2-2---------------------------------2-2-2-2-2-2-2-2-------
A| ----------------2-2-2-2-2-2-2-2-0-0-0-0-0-0-0-0-----------------------
E| ----------------------------------------------------------------------
   E               B               A               E
G| ----------------------------------------------------------------------
D| 2-2-2-2-2-2-2-2---------------------------------2-2-2-2-2-2-2-2-------
A| ----------------2-2-2-2-2-2-2-2-0-0-0-0-0-0-0-0-----------------------
E| ----------------------------------------------------------------------

Pre-Chorus 2:
   F#      A       E       B       F#      A       E       B
G| ----------------------------------------------------------------------
D| ----------------2-2-2-2-------------------------2-2-2-2---------------
A| 4-4-4-4-0-0-0-0---------2-2-2-2-4-4-4-4-0-0-0-0---------2-2-2-2-------
E| ----------------------------------------------------------------------

Chorus:
   E               B               F#              A
G| ----------------------------------------------------------------------
D| 2-2-2-2-2-2-2-2-------------------------------------------------------
A| ----------------2-2-2-2-2-2-2-2-4-4-4-4-4-4-4-4-0-0-0-0-0-0-0-0-------
E| ----------------------------------------------------------------------
   E               B               F#              A
G| ----------------------------------------------------------------------
D| 2-2-2-2-2-2-2-2-------------------------------------------------------
A| ----------------2-2-2-2-2-2-2-2-4-4-4-4-4-4-4-4-0-0-0-0-0-0-0-0-------
E| ----------------------------------------------------------------------

Bridge:
   E               B               F#              A
G| ----------------------------------------------------------------------
D| 2-2-2-2-2-2-2-2-------------------------------------------------------
A| ----------------2-2-2-2-2-2-2-2-4-4-4-4-4-4-4-4-0-0-0-0-0-0-0-0-------
E| ----------------------------------------------------------------------
   E               B               F#              A
G| ----------------------------------------------------------------------
D| 2-2-2-2-2-2-2-2-------------------------------------------------2-----
A| ----------------2-2-2-2-2-2-2-2-4-4-4-4-4-4-4-4-0-0-0-0-0-0-0-0-------
E| ----------------------------------------------------------------------

Chorus (3 - Last):
   E               B               F#              A
G| ----------------------------------------------------------------------
D| 2~--------------------------------------------------------------------
A| ----------------2~--------------4~--------------0~--------------------
E| ----------------------------------------------------------------------
   E             F#-B              F#            E-A           B
G| ----------------------------------------------------------------------
D| 2~--------------------------------------------2-----------------------
A| --------------4\2~--------------4~--------------0~----------2~--------
E| ----------------------------------------------------------------------
   E               B               F#              A
G| ----------------------------------------------------------------------
D| 2-2-2-2-2-2-2-2-------------------------------------------------------
A| ----------------2-2-2-2-2-2-2-2-4-4-4-4-4-4-4-4-0-0-0-0-0-0-0-0-------
E| ----------------------------------------------------------------------
   E               B               F#              A
G| ----------------------------------------------------------------------
D| 2-2-2-2-2-2-2-2-------------------------------------------------------
A| ----------------2-2-2-2-2-2-2-2-4-4-4-4-4-4-4-4-0-0-0-0-0-0-0-0-------
E| ----------------------------------------------------------------------

End-tro:
   E               B               A               E            A   E
G| ----------------------------------------------------------------------
D| 2-2-2-2-2-2-2-2---------------------------------2-2-2-2-2-2~-----2~---
A| ----------------2-2-2-2-2-2-2-2-0-0-0-0-0-0-0-0--------------2~-------
E| ----------------------------------------------------------------------


A Note From The Tabber:
I believe this is basically it.
I'm quite sure there are some "walking notes" around in the song,
But I'll leave that up to you to pick out and play. 
Have fun!

Comments about this tab

No comments/corrections found. Add your own

Complimentary Christian Ringtones
Dadamobile and CGR have teamed up to bring your favorite Christian artists right to your phone. Sign up today and get 10 complementary ringtones!
Tab Country
Did you know CGR has a sister site w/ country guitar tabs? Well we do! Its called Tab Country. It has a great archive with a lot of country tabs.
Rockin Tabs
Are you looking for a site that has rock guitar tabs? Then Rockintabs.com is the place for you. It is a budding site with many rock guitar tabs. Submit your tab today.
Tab Gallery
Tab Gallery has a compilation of christian, rock, and country tabs all in one place. Come visit us.