Bass Tabs
(THIRD DAY) OR BY ARTIST NAME (JENNIFER KNAPP)
0-9|A|B|C|D|E|F|G|H|I|J|K|L|M|N|O|P|Q|R|S|T|U|V|W|X|Y|Z

Join Us Today!

Don't strum alone...
be a part of the largest online Christian music community. Browse thousands of guitar tabs and chat w/ musicians like yourself.


It's Free!

This tab has not yet been rated for accuracy.Sorry, but you must be logged in to rate this tab.
Click here to log-in, or you can click here to register.
(Registration is free)

All songs owned by Integrity and Brentwood-Benson are used by permission. If you make copies of any song on this website, be sure to report your usage to CCLI.
Submitted by: sou7hernsaint

The Beautiful Letdown
Switchfoot

An Alternate Version:
(at least different fingering)

/ = slide

Several things:
First, the slide from 7/10 can also be done as a tenth chord, where one slides
from 9-10 on the E, and then plays the major tenth, followed by the minor tenth
a step down (I think it sounds better)

Verse
----|-----------------119--|-----------------------11-9-
----|-----------------------|----------------------------
5-7-|-----55-7--------------|----5---5--5-7---------------
----|-0-7------0-9/10-109--|0-7---7--------0-9/10--10--9-



Bridge
----------------------------------------
-----11---------14------11--------------
--11----11-h12------11------11--9-------
----------------------------------------



Chorus
--------------------------------------
--------------------------------------
---------5-5-5-5-4-0-------------4-5--
0-0--5-7-------------0-5-7---5-7------

Everyother time he has an extra C# in transition back to the begining of the
phrase. Once you hit half way, Tim begins to play with the formula, but these
are the basics as it seems to me.

He hits a B on the A string before entering into the Chorus again 2 minutes in.

The next time he comes to the Verse, he changes the pattern begining with the
open E:

at 3 minutes,
-------------------------|
-----------------77-------|
-----55-7-----5-----77----|
-0-7------0-7----------0-|

He does the above twice, then the E-E (0 on E to 7 on A), followed by:

------------------------------------------|
------------------------------------------|
-----------------7/-----5---5----7--------|
--3333--555-570-------7---7----------0h---|

Comments about this tab

No comments/corrections found. Add your own

Complimentary Christian Ringtones
Dadamobile and CGR have teamed up to bring your favorite Christian artists right to your phone. Sign up today and get 10 complementary ringtones!
Tab Country
Did you know CGR has a sister site w/ country guitar tabs? Well we do! Its called Tab Country. It has a great archive with a lot of country tabs.
Rockin Tabs
Are you looking for a site that has rock guitar tabs? Then Rockintabs.com is the place for you. It is a budding site with many rock guitar tabs. Submit your tab today.
Tab Gallery
Tab Gallery has a compilation of christian, rock, and country tabs all in one place. Come visit us.