Bass Tabs
(THIRD DAY) OR BY ARTIST NAME (JENNIFER KNAPP)
0-9|A|B|C|D|E|F|G|H|I|J|K|L|M|N|O|P|Q|R|S|T|U|V|W|X|Y|Z

Join Us Today!

Don't strum alone...
be a part of the largest online Christian music community. Browse thousands of guitar tabs and chat w/ musicians like yourself.


It's Free!

This tab has been rated a 5.00 out of 5 for accuracy. (1 vote)Sorry, but you must be logged in to rate this tab.
Click here to log-in, or you can click here to register.
(Registration is free)

All songs owned by Integrity and Brentwood-Benson are used by permission. If you make copies of any song on this website, be sure to report your usage to CCLI.
Submitted by: Jesusmoon23

Title:   The Older I Get
Artist:  Skillet
Album:   Comatose (BEST album of 2007, even the decade, in my opinion)
Copyright  2006 Atlantic Records

Please give me some input on my tabbing style, this is only my second submission. In my Supertones  Little Man tab, I went for absolute accuracy (too tedious), but in this one, I tabbed the simple progressions and will leave the beat pattern up to you.
Thanks, enjoy the song, and buy this album. In my opinion, it is the BEST one of 2007, possibly the decade.

_ = silence string


Intro 8 measures  no bass

Verse (3x, enter after 4 measures)
G-----------------
D---------3-------
A-0--3------------
E-----------------

Pre-Chorus
G---------------------------------
D-0---2---3-------0---2---3---_---
A---------------------------------
E---------------------------------

Chorus (2x)
G---------------------------------
D---------5-------0---2---3-------
A-3-------------------------------
E---------------------------------

Verse (5x)

Chorus (2x)

Bridge
G---------------------------------
D-7-------3---------------5-------
A-----------------3---------------
E---------------------------------

G---------------------------------
D-7-------3-------0---2---3-------
A---------------------------------
E---------------------------------

Chorus (4x)

Comments about this tab

No comments/corrections found. Add your own

Complimentary Christian Ringtones
Dadamobile and CGR have teamed up to bring your favorite Christian artists right to your phone. Sign up today and get 10 complementary ringtones!
Tab Country
Did you know CGR has a sister site w/ country guitar tabs? Well we do! Its called Tab Country. It has a great archive with a lot of country tabs.
Rockin Tabs
Are you looking for a site that has rock guitar tabs? Then Rockintabs.com is the place for you. It is a budding site with many rock guitar tabs. Submit your tab today.
Tab Gallery
Tab Gallery has a compilation of christian, rock, and country tabs all in one place. Come visit us.