Bass Tabs
(THIRD DAY) OR BY ARTIST NAME (JENNIFER KNAPP)
0-9|A|B|C|D|E|F|G|H|I|J|K|L|M|N|O|P|Q|R|S|T|U|V|W|X|Y|Z

Join Us Today!

Don't strum alone...
be a part of the largest online Christian music community. Browse thousands of guitar tabs and chat w/ musicians like yourself.


It's Free!

This tab has not yet been rated for accuracy.Sorry, but you must be logged in to rate this tab.
Click here to log-in, or you can click here to register.
(Registration is free)

All songs owned by Integrity and Brentwood-Benson are used by permission. If you make copies of any song on this website, be sure to report your usage to CCLI.
Insyderz-Who Is This
Skalleluia Too!
Bass Guitar
Translated by: Nate Hixson (natehixson@yahoo.com)

This song is very easy to play.  I absolutely love this song.  I hope you
find the tabbing to be accurate.  If you have any comments email me.

Verse 1:
After Joe says "Draw me in to you"

G|-------------|
D|-------------|
A|-------------|
E|-3-3/6-3-3/8-|

Verse 2:

G|---------|
D|-3-2-0---|
A|-------3-|
E|---------|

Chorus (same as rest of verses):

G|-----------------------------------------------------------------|
D|-3-3-3-3-3-3-3-3-2-2-2-2-2-2-2-2-0-0-0-0-0-0-0-0-----------------|
A|-------------------------------------------------3-3-3-3-3-3-3-3-|
E|-----------------------------------------------------------------|

Other little part:
G|--------------|
D|-----5------3-|
A|---3------1---|
E|-3------1-----|

Another little part:
G|-----5-------------------------|
D|---3--------5------3------5----|
A|-3--------3------1------3----3-|
E|--------3------1------3--------|

End:
G|-------------------|
D|-------------------|
A|-------------------|
E|-3-3/6-3-3/6-3-3/6-|

Copyright  1998 Vineyard Song (UK/EIRE)(ASCAP)

Comments about this tab

No comments/corrections found. Add your own

Complimentary Christian Ringtones
Dadamobile and CGR have teamed up to bring your favorite Christian artists right to your phone. Sign up today and get 10 complementary ringtones!
Tab Country
Did you know CGR has a sister site w/ country guitar tabs? Well we do! Its called Tab Country. It has a great archive with a lot of country tabs.
Rockin Tabs
Are you looking for a site that has rock guitar tabs? Then Rockintabs.com is the place for you. It is a budding site with many rock guitar tabs. Submit your tab today.
Tab Gallery
Tab Gallery has a compilation of christian, rock, and country tabs all in one place. Come visit us.