Bass Tabs
(THIRD DAY) OR BY ARTIST NAME (JENNIFER KNAPP)
0-9|A|B|C|D|E|F|G|H|I|J|K|L|M|N|O|P|Q|R|S|T|U|V|W|X|Y|Z

Join Us Today!

Don't strum alone...
be a part of the largest online Christian music community. Browse thousands of guitar tabs and chat w/ musicians like yourself.


It's Free!

This tab has been rated a 5.00 out of 5 for accuracy. (1 vote)Sorry, but you must be logged in to rate this tab.
Click here to log-in, or you can click here to register.
(Registration is free)

All songs owned by Integrity and Brentwood-Benson are used by permission. If you make copies of any song on this website, be sure to report your usage to CCLI.
Submitted by: sac346

Band: Falling Up
Album: Dawn Escapes/X 2007
Song: Contact
Year: 2005/2007
Record: BEC
Tuning: Drop D (DADG)

I know that this song is probably easy to figure out on your own, but
some of the new guys may want to learn it. I have it tabbed for Drop D,
because that's how they play it live and if your going through all their
songs, you dont' have to hastle with tuning. 

Intro and Verse 1 Piano

Chorus 1:
G[-------------------------------------------------]
D[-------------------------------------------------]
A[-------------4-4x-4x-44x-0-0x-0x-00x-2-2x-2x-22x-] (2X)
D[-4-4x-4x-44x-------------------------------------]

Post Chorus:
G[-------------------------------------------------]
D[-------------------------------------------------]
A[-4-4x-4x-44x-4-4x-4x-44x-0-0x-0x-00x-2-2x-2x-22x-]
D[-------------------------------------------------]

Verse 2:
G[-------------------------------------------------]
D[-------------------------------------------------]
A[-4-4x-4x-44x-4-4x-4x-44x-0-0x-0x-00x-2-2x-2x-22x-]
D[-------------------------------------------------]

G[--------------------------------------------]
D[--------------------------------------------]
A[-4-4x-4x-44x-4-4x-4x-44x-0-0x-0x-00x-22~-2~-]
D[--------------------------------------------]

Chorus 2: Same as chorus 1, but don't deaden the strings after each note.
G[---------------------------------]
D[---------------------------------]
A[---------44-4-44-00-0-00-22-2-22-] (2X)
D[-44-4-44-------------------------]

Bridge:
G[---------------------------------]
D[---------------------------------]
A[-00-0-00-00-0-00-22-2-22-22-2-22-] (2X)
D[---------------------------------]

Chorus 2:
G[---------------------------------]
D[---------------------------------]
A[---------44-4-44-00-0-00-22-2-22-] (4X)
D[-44-4-44-------------------------]

Outro Piano

Tab legend
x: deaden strings

that's it. pretty sweet song i think. enjoy.

Comments about this tab

No comments/corrections found. Add your own

Complimentary Christian Ringtones
Dadamobile and CGR have teamed up to bring your favorite Christian artists right to your phone. Sign up today and get 10 complementary ringtones!
Tab Country
Did you know CGR has a sister site w/ country guitar tabs? Well we do! Its called Tab Country. It has a great archive with a lot of country tabs.
Rockin Tabs
Are you looking for a site that has rock guitar tabs? Then Rockintabs.com is the place for you. It is a budding site with many rock guitar tabs. Submit your tab today.
Tab Gallery
Tab Gallery has a compilation of christian, rock, and country tabs all in one place. Come visit us.