Bass Tabs
(THIRD DAY) OR BY ARTIST NAME (JENNIFER KNAPP)
0-9|A|B|C|D|E|F|G|H|I|J|K|L|M|N|O|P|Q|R|S|T|U|V|W|X|Y|Z

Join Us Today!

Don't strum alone...
be a part of the largest online Christian music community. Browse thousands of guitar tabs and chat w/ musicians like yourself.


It's Free!

This tab has been rated a 5.00 out of 5 for accuracy. (1 vote)Sorry, but you must be logged in to rate this tab.
Click here to log-in, or you can click here to register.
(Registration is free)

All songs owned by Integrity and Brentwood-Benson are used by permission. If you make copies of any song on this website, be sure to report your usage to CCLI.
Submitted by: Jesusmoon23

Little Man
Artist: The O.C. Supertones
Album: Supertones Strike Back

Copyright: 1997 BEC Recordings

Kudos to the other two Supertones fans who posted tabs for this song 
I just added all the little notes in between the main progressions and 
made sure the rhythm was right. Also, I`ve written the trumpet part for 
bass in the Pre-Chorus  I just think it sounds cooler that following 
the guitar.
Tabbed by Samwise

Intro part 1
G-----------------------------------------------------------------   x2
D----232-----232-----232--2200-------232-----232-----232-----232--
A-0-----3-0-----3-2-----3-----33220-----3-0-----3-2-----3-2-----32
E-----------------------------------------------------------------

G---------------------------------
D----232-----232-----232--2200----
A-0-----3-0-----3-2-----3-----332-
E--------------------------------0

Intro part 2 (00:43)
G----------------------------------------------------------------------
D---------------------------------------------------------2200---------
A--0-0-0---0-0-0-332-2-2-332-2-----0-0-0---0-0-0-332-2-232----33220--...
E-3------03--------------------0303------03----------------------------

Pre-verse (drums, vocals)

Verse (pickup E) (01:17)
G--------------------20-2----220---------------------42-4-----420-   x2
D----20-2----20-2-0-------0-----20---20-2----20-1-2-------2--2---2
A-0-------0-----------------------0-------0---------------▲-------
E----------------------------------------------------hold E second time

Pre-Chorus (01:38)
G-----------------------------------------------------------------
D----------------------------0-------------------------------0----
A-0-----3-23-2----0-----3-23---2--0-----3-23-2----0-----3-23---2--
E--------------3-------------------------------3------------------

Verse (01:48)
G--------------------20-2----220---------------------42-4-----420-   x2
D----20-2----20-2-0-------0-----20---20-2----20-1-2-------2--2---2
A-0-------0-----------------------0-------0---------------▲-------
E----------------------------------------------------hold E second time

Chorus (02:08)
G-----------------------------------------------------------------
D---------------0---------000---0---------------0---------000---0-
A-0-0---------3---3-3---03----3---0-0---------3---3-3---03----3---
E-------023-3---------------------------02333---------------------

Verse (02:18)
G--------------------20-2----220---------------------42-4-----420-   x2
D----20-2----20-2-0-------0-----20---20-2----20-1-2-------2--2---2
A-0-------0-----------------------0-------0---------------▲-------
E----------------------------------------------------hold E second time

Chorus x2 (02:39)
G-----------------------------------------------------------------   x2
D---------------0---------000---0---------------0---------000---0-
A-0-0---------3---3-3---03----3---0-0---------3---3-3---03----3---
E-------023-3---------------------------02333---------------------

Interlude (02:59)
G-----------------------------------------------------------------
D-0-0-000---------0-0-000---------0-0-000---------0-0-000---------
A-----------00-00-----------2-0-------------00-00-----------2-0---
E---------3---------------3---------------3---------------3-------

Bridge (no vocals) (03:10)
G-----------------------------------------------------------------
D-----------------------------------------------------------------
A---0-------0-------0-------0-------0-------0-------0-------0-----
E-3------03------03------03------03------03------03------03------0

Pre-Chorus x2 (03:19)
G-----------------------------------------------------------------   x2
D----------------------------0-------------------------------0----
A-0-----3-23-2----0-----3-23---2--0-----3-23-2----0-----3-23---2--
E--------------3-------------------------------3------------------

Bridge (with vocals) (03:29)
G-----------------------------------------------------------------
D-----------------------------------------------------------------
A---0-------0-------0-------0-------0-------0-------0-------0-----
E-3------03------03------03------03------03------03------03------0

Chorus x2 (03:39)
G-----------------------------------------------------------------   x2
D---------------0---------000---0---------------0---------000---0-
A-0-0---------3---3-3---03----3---0-0---------3---3-3---03----3---
E-------023-3---------------------------02333---------------------

G-----
D-----
A---0-
E-3---

Comments about this tab

No comments/corrections found. Add your own

Complimentary Christian Ringtones
Dadamobile and CGR have teamed up to bring your favorite Christian artists right to your phone. Sign up today and get 10 complementary ringtones!
Tab Country
Did you know CGR has a sister site w/ country guitar tabs? Well we do! Its called Tab Country. It has a great archive with a lot of country tabs.
Rockin Tabs
Are you looking for a site that has rock guitar tabs? Then Rockintabs.com is the place for you. It is a budding site with many rock guitar tabs. Submit your tab today.
Tab Gallery
Tab Gallery has a compilation of christian, rock, and country tabs all in one place. Come visit us.