Bass Tabs
(THIRD DAY) OR BY ARTIST NAME (JENNIFER KNAPP)
0-9|A|B|C|D|E|F|G|H|I|J|K|L|M|N|O|P|Q|R|S|T|U|V|W|X|Y|Z

Join Us Today!

Don't strum alone...
be a part of the largest online Christian music community. Browse thousands of guitar tabs and chat w/ musicians like yourself.


It's Free!

This tab has not yet been rated for accuracy.Sorry, but you must be logged in to rate this tab.
Click here to log-in, or you can click here to register.
(Registration is free)

All songs owned by Integrity and Brentwood-Benson are used by permission. If you make copies of any song on this website, be sure to report your usage to CCLI.
Submitted by: puma

hey guys, im from CCS and i noticed that no ones put up the 

My Generation 
-Starfield
 
tabs for the bass yet. 
ill just show you how i play it.

~=vibrate
/=slide



Intro

G--------------------------------------------
D--------------------------------------------
A---------------------------------/15~-------
E-16/44-444-455-555-566-666-677-7/----------- x2

come in 2nd verse
Verse (there are alot of variations that you can play for the verses)
 pick up   
G-------[----------------------------------------------------------------
D-------[----------------------------------------------------------------
A-------[---7-777--33-3-------0332/7~--33----03032-----77~--33-----03032-
E-45-7-[---------------3/5-555-----------345------------------345--------

G---------------------------------------------
D---------------------------------------------
A--7~7~--03032--------/15~/6~-----------------
E--------------5/-----------------------------

Chorus

G-------------------------------------------------------------
D-------------------------------------------------------------
A----------/7777-------/12121212---------/7777--333-5555------
E----0-0/--------5-5/--------------0-0/-----------------------

G-------------------------------------------------------------
D-------------------------------------------------------------
A----------/7777-------/12121212---------/7777--3-3-3-3-5555--
E----0000/--------5555/--------------0-0/---------------------

Intro

(another variation of the verse that you can do)
Verse (just play what ever sounds good)
G---------------------------------
D---------------------------------
A----5-7~--33~------03032---------
E---0----------555~---------------

Chorus

G-------------------------------------------------
D------------------------------------------------
A----------/7777-------/12121212---------/7777----
E----0-0/--------5-5/--------------0-0/----------

G---------------------------------------------
D-10-10-10-10-7-7-7-7-12-12-12-12------------
A--------------------------------12-12-------
E-------------------------------------12-12--

G------------------------------------------------------------------------
D------------------------------------------------------------------------
A----------/7777-------/12121212---------/7777--15-15-15-15-17-17-17-17--
E----0000/--------5555/--------------0-0/--------------------------------

Bridge/Solo (the part that drove me crazy...and its still not perfect)

G----------------------------------------9-7-----4----------------------
D----------6----------------6-------9-10-----9-7---5-7-5-4-5-7-5-4------
A--------7----9-6-7-------7---9-6-7--------------------------------6----
E----0-7------------7-0-7----------------------------------------------- x4

Chorus

and you can play the solo during the last part of the chorus i guess

then

Intro

so let me know what you think please
and please edit if you want

my email address is 

caboosen1@gmail.com

Comments about this tab

No comments/corrections found. Add your own

Complimentary Christian Ringtones
Dadamobile and CGR have teamed up to bring your favorite Christian artists right to your phone. Sign up today and get 10 complementary ringtones!
Tab Country
Did you know CGR has a sister site w/ country guitar tabs? Well we do! Its called Tab Country. It has a great archive with a lot of country tabs.
Rockin Tabs
Are you looking for a site that has rock guitar tabs? Then Rockintabs.com is the place for you. It is a budding site with many rock guitar tabs. Submit your tab today.
Tab Gallery
Tab Gallery has a compilation of christian, rock, and country tabs all in one place. Come visit us.