Bass Tabs
(THIRD DAY) OR BY ARTIST NAME (JENNIFER KNAPP)
0-9|A|B|C|D|E|F|G|H|I|J|K|L|M|N|O|P|Q|R|S|T|U|V|W|X|Y|Z

Join Us Today!

Don't strum alone...
be a part of the largest online Christian music community. Browse thousands of guitar tabs and chat w/ musicians like yourself.


It's Free!

This tab has not yet been rated for accuracy.Sorry, but you must be logged in to rate this tab.
Click here to log-in, or you can click here to register.
(Registration is free)

All songs owned by Integrity and Brentwood-Benson are used by permission. If you make copies of any song on this website, be sure to report your usage to CCLI.
Submitted by: YesusHristova

                             STRONG TOWER (Bassline)
                             As recorded by Kutless
                       (From the 2005 Album STRONG TOWER)

Words and Music by Marc Byrd, Mark Lee, Jon Micah Sumrall, Aaron Sprinkle
Arranged by Lachlan Brown
Transcribed by Lachlan Brown

Gtr I (E A D G) - Bass Guitar
Gtr II (D A D G B E) - Strings

 Intro
  Q=80
 4/4
  Gtr I
|--------------|-----------|--------------|-------------------||
|--------------|-----------|--------------|----------6-4--(4)-||
|-2----(2)-0---|-/4--------|-2----(2)-0---|-4----(4)----------||
|--------------|-----------|--------------|-------------------||


   Verse
||----------------|-----------|--------------|-------|
||o---------------|-----------|--------------|-------|
||o-2----(2)-0---|-/4--------|-2----(2)-0---|-/4----|
||----------------|-----------|--------------|-------|


|--------------|-----------|--------------|--------||
|--------------|-----------|--------------|--------||
|-2----(2)-0---|-/4--------|-2----(2)-0---|-/4----||
|--------------|-----------|--------------|--------||


 Pre-Chorus
|-----------------|-----------------|-----------------|--------------||
|-----------------|-----------------|-----------------|--------------||
|-----------------|-----------------|-----------------|--------------||
|-2-2-2-2-2-2-2-2-|-5-5-5-5-5-5-5-5-|-2-2-2-2-2-2-2-2-|-5-5-5-5-5----||


 Chorus
|-----------------|-----------------|-----------------|-----------------|
|-----------------|-----------------|-----------------|-----------------|
|-----------------|-4-4-4-4-4-4-4-4-|-0-0-0-0-0-0-0-0-|-0-0-0-0-0-0-0-0-|
|-0-0-0-0-0-0-0-0-|-----------------|-----------------|-----------------|


|-----------------|-----------------|
|-----------------|-----------------|
|-----------------|-4-4-4-4-4-4-4-4-|
|-0-0-0-0-0-0-0-0-|-----------------|


                                    1.
|-----------------|----------------|---------||
|-----------------|----------------|--------o||
|-0-0-0-0-0-0-0-0-|-2-2-2-2-4-4--0-|-(0)----o||
|-----------------|----------------|---------||


 Breakdown
  2.
|------------------|----------------|
|------------------|----------------|
|-(0)--0-0-0-0-0-0-|-2-2-2-2-4-4--0-|
|------------------|----------------|


|------------------|----------------|--------||
|------------------|----------------|--------||
|-(0)--0-0-0-0-0-0-|-2-2-2-2-4-4--0-|-(0)----||
|------------------|----------------|--------||


 Guitar Break
|-----------------|-----------------|-----------------|--------------||
|-----------------|-----------------|-----------------|--------------||
|-----------------|-----------------|-----------------|---------0----||
|-----------------|-----------------|-----------------|--------------||
|
| Gtr II
|-----------------|-----------------|-----------------|--------------||
|-----------------|-----------------|-----------------|--------------||
|-----------------|-----------------|-----------------|--------------||
|-4-4-4-4-4-4-6-6-|-7-7-7-7-7-7-9-9-|-4-4-4-4-4-4-6-6-|-7-7-7-7-7----||
|-----------------|-----------------|-----------------|--------------||
|-----------------|-----------------|-----------------|--------------||


 Out-Chorus
|-----------------|-----------------|-----------------|-----------------|
|-----------------|-----------------|-----------------|-----------------|
|-----------------|-4-4-4-4-4-4-4-4-|-0-0-0-0-0-0-0-0-|-0-0-0-0-0-0-0-0-|
|-0-0-0-0-0-0-0-0-|-----------------|-----------------|-----------------|
|
|-7---------------|-7---------------|-7---------------|-7---------------|
|-----------------|-----------------|-----------------|-----------------|
|-----------------|-----------------|-----------------|-----------------|
|-----------------|-----------------|-----------------|-----------------|
|-----------------|-----------------|-----------------|-----------------|
|-----------------|-----------------|-----------------|-----------------|


|-----------------|-----------------|-------------------|-----------------|
|-----------------|-----------------|-------------------|-----------------|
|-----------------|-4-4-4-4-4-4-4-4-|--0--0-0-0-0-0-0-0-|-0-0-0-0-0-0-0-0-|
|-0-0-0-0-0-0-0-0-|-----------------|-------------------|-----------------|
|
|-7-------4---5---|-7-------4-5-7-0-|-(0)-----------7---|-0-------2---5---|
|-----------------|-----------------|-------------------|-----------------|
|-----------------|-----------------|-------------------|-----------------|
|-----------------|-----------------|-------------------|-----------------|
|-----------------|-----------------|-------------------|-----------------|
|-----------------|-----------------|-------------------|-----------------|


|------------|--------------|--------------|----------------|
|------------|--------------|--------------|----------------|
|------------|-4----4---4---|--0-----0--0--|-2-2-2-2-4-4--0-|
|-0----0--0--|--------------|--------------|----------------|
|
|-7----4--5--|-7----4-5-7-0-|-(0)----------|-2-------4----0-|
|------------|--------------|--------------|----------------|
|------------|--------------|--------------|----------------|
|------------|--------------|--------------|----------------|
|------------|--------------|--------------|----------------|
|------------|--------------|--------------|----------------|


|-------------------|-----------------|-------------|---------*|
|-------------------|-----------------|-------------|---------*|
|--0--0-0-0-0-0-0-0-|-2-2-2-2-4-4---0-|--(0)--------|--(0)----*|
|-------------------|-----------------|-------------|---------*|
|
|-(0)---------------|-2-------4----12-|-(12)--------|-(12)----*|
|-------------------|-----------------|-------------|---------*|
|-------------------|-----------------|-------------|---------*|
|-------------------|-----------------|-------------|---------*|
|-------------------|-----------------|-------------|---------*|
|-------------------|-----------------|-------------|---------*|



***************************************************
* Generated using Power Tab Editor by Brad Larsen *
*        http://powertab.guitarnetwork.org        *
***************************************************

This is the bass tab for Strong Tower, I think this is fairly accurate but Im
primarily a drummer so comment or whatever if u want to correct it. Ive
included a part for the strings that you here at the end. Because I cant play
the violin the tab is for an acoustic guitar but you could fairly easily play
the same notes on a violin. Also check out the guitar tab I put up for this
song.

Yours in JC, Lachy

Comments about this tab

No comments/corrections found. Add your own

Complimentary Christian Ringtones
Dadamobile and CGR have teamed up to bring your favorite Christian artists right to your phone. Sign up today and get 10 complementary ringtones!
Tab Country
Did you know CGR has a sister site w/ country guitar tabs? Well we do! Its called Tab Country. It has a great archive with a lot of country tabs.
Rockin Tabs
Are you looking for a site that has rock guitar tabs? Then Rockintabs.com is the place for you. It is a budding site with many rock guitar tabs. Submit your tab today.
Tab Gallery
Tab Gallery has a compilation of christian, rock, and country tabs all in one place. Come visit us.