Bass Tabs
(THIRD DAY) OR BY ARTIST NAME (JENNIFER KNAPP)
0-9|A|B|C|D|E|F|G|H|I|J|K|L|M|N|O|P|Q|R|S|T|U|V|W|X|Y|Z

Join Us Today!

Don't strum alone...
be a part of the largest online Christian music community. Browse thousands of guitar tabs and chat w/ musicians like yourself.


It's Free!

This tab has not yet been rated for accuracy.Sorry, but you must be logged in to rate this tab.
Click here to log-in, or you can click here to register.
(Registration is free)

All songs owned by Integrity and Brentwood-Benson are used by permission. If you make copies of any song on this website, be sure to report your usage to CCLI.
Submitted by: PumpknDog

This song is done with two-hand tapping...  which is awesome 
The other tabs were close, but didnt really get all the notes
the rhythm isnt represented by the tab...  you can figure that out once you
get the notes down.

all notes are hammer, 
p = pulloff, 
()s mean you an optional fretting of the note
r/l - right or left hand (my suggestions)

G:--16----------------------------------------------------------14p10--
D:--15----------18---------------------------18------------10----------
A:------------------17------16----------16-------------8---------------
E:-----9--9--9-----------9------9---9--------------14------------------
    r  l  l  l  r   r    l  r   l   l   r    r     r   l    l   r  l

G:--------------16---------------------------------14--14--
D:--15-----------------------------------18--------12--12--
A:------------------17-----16--------16--------8-----------
E:-----9--9--9----------9------9--9-----------(14)---------
    r  l  l  l  r   r   l  r   l  l  r   l     take your pick :)

Comments about this tab

No comments/corrections found. Add your own

Complimentary Christian Ringtones
Dadamobile and CGR have teamed up to bring your favorite Christian artists right to your phone. Sign up today and get 10 complementary ringtones!
Tab Country
Did you know CGR has a sister site w/ country guitar tabs? Well we do! Its called Tab Country. It has a great archive with a lot of country tabs.
Rockin Tabs
Are you looking for a site that has rock guitar tabs? Then Rockintabs.com is the place for you. It is a budding site with many rock guitar tabs. Submit your tab today.
Tab Gallery
Tab Gallery has a compilation of christian, rock, and country tabs all in one place. Come visit us.