Bass Tabs
(THIRD DAY) OR BY ARTIST NAME (JENNIFER KNAPP)
0-9|A|B|C|D|E|F|G|H|I|J|K|L|M|N|O|P|Q|R|S|T|U|V|W|X|Y|Z

Join Us Today!

Don't strum alone...
be a part of the largest online Christian music community. Browse thousands of guitar tabs and chat w/ musicians like yourself.


It's Free!

This tab has been rated a 5.00 out of 5 for accuracy. (3 votes)Sorry, but you must be logged in to rate this tab.
Click here to log-in, or you can click here to register.
(Registration is free)

All songs owned by Integrity and Brentwood-Benson are used by permission. If you make copies of any song on this website, be sure to report your usage to CCLI.
Submitted by: sac346

Hey all! This is my first bass tab so tell me what you think!

Please take note of the TAB legend at the bottom of the song before you
play this.

Drop D Tuning! {DADG}

Intro:
G[-------------------]
D[0~-----8~-----12*~-]
A[-------------------]
D[-------------------]

Verse 1:
G[-------------------]
D[12*~--12*~--8~--8~-]3X
A[-------------------]
D[-------------------]

G[---------------------------------]
D[0-0-0---0-0-0--------------------]2X
A[---------------------------------]
D[--------------7-7-8-8-8--8-8-8-7-]

Pre Chorus 1:
G[------------]
D[------------]
A[------------]
D[0~---0-0-00-]

Chorus:
G[--------------------------------]           G[-----------]
D[------------0---5-5---0---5-5---]2X  End on D[-----------]
A[--------------------------------]           A[-----------]
D[8--8--8--8----0-----0---0-----0-]           D[8--8--8--8-]

Verse 2:
G[-------------------------------------------------------]
D[--------------8-8-8--8-8-8----------------8-8-8--8-8-8-]
A[-------------------------------------------------------]
D[0-0-0--0-0-0----------------0-0-0--0-0-0---------------]

G[-----------------------------]
D[0-0-0--0-0-0-----------------]
A[-----------------------------]
D[-------------7-7-8-8--8-8-7--]

Pre Chorus 2:
G[---------------------]
D[0---5-5---0----5-5---]
A[---------------------]
D[--0-----0---0------0-]

Chorus:
G[--------------------------------]           G[-----------]
D[------------0---5-5---0---5-5---]2X  End on D[-----------]
A[--------------------------------]           A[-----------]
D[8--8--8--8----0-----0---0-----0-]           D[8--8--8--8-]

Bridge 1:
G[------------------------------------------------]
D[-------8--8-8--------8--8-8---0---5-5-0---5-5---]
A[------------------------------------------------]
D[0--0-0--------0--0-0------------0-------0-----0-]

Chorus:
G[--------------------------------]           G[-----------]
D[------------0---5-5---0---5-5---]2X  End on D[-----------]
A[--------------------------------]           A[-----------]
D[8--8--8--8----0-----0---0-----0-]           D[8--8--8--8-]

Bridge 2:
G[----------------------]
D[----------------------]
A[----------------------]
D[5~---7~---8~---7~---8-]

G[----------------------]
D[----------------------]7X
A[----------------------]
D[8-8-8--8-8-7-7-7--7-7-]

End On:
G[----]
D[----]
A[----]
D[8~--]

TAB Legend:
~ hold note
* harmonics

Kind of a tricky tab, but i'm sure you will get it as soon as you listen
to the song. Hope you enjoy, Shane (Falling Up Rocks!!!)

Comments about this tab

iwant2playgetar - 2004-07-12

WHAT'S THE BEAT OF THIS SONG


Add a comment/correction

Complimentary Christian Ringtones
Dadamobile and CGR have teamed up to bring your favorite Christian artists right to your phone. Sign up today and get 10 complementary ringtones!
Tab Country
Did you know CGR has a sister site w/ country guitar tabs? Well we do! Its called Tab Country. It has a great archive with a lot of country tabs.
Rockin Tabs
Are you looking for a site that has rock guitar tabs? Then Rockintabs.com is the place for you. It is a budding site with many rock guitar tabs. Submit your tab today.
Tab Gallery
Tab Gallery has a compilation of christian, rock, and country tabs all in one place. Come visit us.