Bass Tabs
(THIRD DAY) OR BY ARTIST NAME (JENNIFER KNAPP)
0-9|A|B|C|D|E|F|G|H|I|J|K|L|M|N|O|P|Q|R|S|T|U|V|W|X|Y|Z

Join Us Today!

Don't strum alone...
be a part of the largest online Christian music community. Browse thousands of guitar tabs and chat w/ musicians like yourself.


It's Free!

This tab has been rated a 5.00 out of 5 for accuracy. (1 vote)Sorry, but you must be logged in to rate this tab.
Click here to log-in, or you can click here to register.
(Registration is free)

All songs owned by Integrity and Brentwood-Benson are used by permission. If you make copies of any song on this website, be sure to report your usage to CCLI.
Submitted by: hyperdork360

Bass Tab
Artist: Hillsong United
Album: United We Stand
Title: Revolution
Track Number: 11

Here are tabs to Revolution (track 11) 
by Hillsong United from United We 
Stand. Revolution is like one of the bestest songs of the album. 
So, anyways, here's how i play it. It's pretty acurate, if there are 
any problems just email me: hyperdork360@hotmail.com

You'll notice that i tabbed down different ways to play it...so experiment
and use the ones that you are comfortable with.

Bass comes in around 0:14 right after "...praising god tonight!"
I found two ways to play it:

Intro
G|---------------------------------------------------------------|
D|-1(x14)--3-3--4(x8)--------------------------------------------|
A|---------------------4-4-4-4-5-5-5-5---------------------------|
E|---------------------------------------------------------------|

or

G|---------------------------------------------------------------|
D|---------------------------------------------------------------|
A|-6(x14)--8-8--9(x8)--------------------------------------------|
E|---------------------9-9-9-9-10-10-10-10-----------------------|

Verse:

Also two ways:

G|---------8-8-8-8----------------------|
D|-----------------8-8-8-8-9-9-9-9------|
A|-6-6-6-6------------------------------|
E|--------------------------------------| x2

G|---------------------------------------------------------------|
D|---------------------------------------------------------------|
A|-9-9--9-9-9--9-9-9--9-9-9--9-9-9--9-9-9--9-9-9--9--9-9-9-9---------------------------------------------|
E|---------------------------------------------------------------|

or

G|----------------------------------------------------------|
D|------------13-13-13-13-----------------------------------|
A|------------------------13-13-13-13 14-14-14-14-----------|
E|-11-11-11-11----------------------------------------------|x2

G|--------------------------------------------------------------|
D|---------------------------------------------------------------|
A|-14-14--14-14-14--14-14-14--14-14-14--14-14-14---14-14-14------|
E|---------------------------------------------------------------|

G|---------------------------------------------------------------|
D|---------------------------------------------------------------|
A|-14-14-14--14--14-14-14-14-------------------------------------|
E|---------------------------------------------------------------|

Pre-Chorus:
4 ways this time:

G|---------------------------------------------------------------|
D|---------------------------------------------------------------|
A|---------------------------------------------------------------|
E|-4-4-4-4/16-16-16-16-7-7-7-7-----------------------------------|

or

G|---------------------------------------------------------------|
D|---------------------------------------------------------------|
A|----------------------2-2-2-2----------------------------------|
E|-4-4-4-4/16-16-16-16-------------------------------------------|

or

G|---------------------------------------------------------------|
D|---------6-6-6-6-----------------------------------------------|
A|---------------------------------------------------------------|
E|-4-4-4-4---------7-7-7-7---------------------------------------|

or  

G|---------------------------------------------------------------|
D|---------6-6-6-6-----------------------------------------------|
A|-----------------2-2-2-2---------------------------------------|
E|-4-4-4-4-------------------------------------------------------|

Chorus:
Only one this time :)

G|---------------------------------------------------------------|
D|---------------------------------------------------------------|
A|-------2-2-2-2-------6---6-------------------------------------|
E|-2-2-2---------4-4-4---4---6-----------------------------------|

G|---------------------------------------------------------------|
D|---------------------------------------------------------------|
A|-------2-2-2-2/11----------------------------------------------|
E|-2-2-2---------------------------------------------------------|

Bridge ("This is the generation")
two ways:

G|---------------------------------------------------------------|
D|---------------------------------------------------------------|
A|-6-6-----6-6--6-6-----6-6--------------------------------------|
E|-----6-6----------6-6-----6/2-2/14-14/2-2--2-2/14-14/2-2-------|x2

(Cause we want the world to know)
G|-------------------------------------------------------------------|
D|-------------------------------------------------------------------|
A|-6-6-6-6-6-6-6-6-2-2-2-2-2-2-2-2-1-1-1-1-1-1-1-1-4-4-4-4-5-5-5-5---|
E|-------------------------------------------------------------------|x2

(We want the world to know!)
G|---------------------------------------------------------------|
D|---------------------------------------------------------------|
A|-----------------2-2-2-2-2-2-2-2-------------------------------|
E|-4-4-4-4-4-4-4-4-----------------------------------------------|

or


G|---------------------------------------------------------------|
D|--------------------------------4-4----------4-4---------------|
A|-6-6-----6-6--6-6-----6-6--------------------------------------|
E|-----6-6----------6-6-----6/2-2-----2-2--2-2-----2-2-----------|x2

(Cause we want the world to know)
G|-------------------------------------------------------------------|
D|-------------------------------------------------------------------|
A|-6-6-6-6-6-6-6-6-2-2-2-2-2-2-2-2-1-1-1-1-1-1-1-1-4-4-4-4-5-5-5-5---|
E|-------------------------------------------------------------------|x2

(We want the world to know!)
G|---------------------------------------------------------------|
D|---------------------------------------------------------------|
A|-----------------2-2-2-2-2-2-2-2-------------------------------|
E|-4-4-4-4-4-4-4-4-----------------------------------------------|
              
Outro
G|---------------------------------------------------------------|
D|---------------------------------------------------------------|
A|-------2-2-2-2--------6---6------------------------------------|
E|-2-2-2----------4-4-4---4---4----------------------------------|

G|---------------------------------------------------------------|
D|---------------------------------------------------------------|
A|-------2-2-2-2---------6-6-6-6---------------------------------|
E|-2-2-2---------4-4-4-4---------4-4-4-4-------------------------|

G|---------------------------------------------------------------|
D|---------------------------------------------------------------|
A|-------2-2-2-2--------6---6------------------------------------|
E|-2-2-2----------4-4-4---4---4----------------------------------|

G|---------------------------------------------------------------|
D|---------------------------------------------------------------|
A|-------2-2-2-2---------2---------------------------------------|
E|-2-2-2---------4-4-4-4-----------------------------------------|

Here's the order to play it in:
Intro
Verse x2
Pre-Chorus
Chorus
Intro
Verse x2
Pre-Chorus
Chorus x2
Intro x2 (This is during the guitar solo)
Bridge
Chorus x2
Outro

Well, that's all if there are any problems or questions 
just email me at hyperdork360@hotmail.com

Comments about this tab

No comments/corrections found. Add your own

Complimentary Christian Ringtones
Dadamobile and CGR have teamed up to bring your favorite Christian artists right to your phone. Sign up today and get 10 complementary ringtones!
Tab Country
Did you know CGR has a sister site w/ country guitar tabs? Well we do! Its called Tab Country. It has a great archive with a lot of country tabs.
Rockin Tabs
Are you looking for a site that has rock guitar tabs? Then Rockintabs.com is the place for you. It is a budding site with many rock guitar tabs. Submit your tab today.
Tab Gallery
Tab Gallery has a compilation of christian, rock, and country tabs all in one place. Come visit us.