Bass Tabs
(THIRD DAY) OR BY ARTIST NAME (JENNIFER KNAPP)
0-9|A|B|C|D|E|F|G|H|I|J|K|L|M|N|O|P|Q|R|S|T|U|V|W|X|Y|Z

Join Us Today!

Don't strum alone...
be a part of the largest online Christian music community. Browse thousands of guitar tabs and chat w/ musicians like yourself.


It's Free!

This tab has been rated a 4.00 out of 5 for accuracy. (2 votes)Sorry, but you must be logged in to rate this tab.
Click here to log-in, or you can click here to register.
(Registration is free)

All songs owned by Integrity and Brentwood-Benson are used by permission. If you make copies of any song on this website, be sure to report your usage to CCLI.
Submitted by: krazykrutchfan4

Artist: Thousand Foot Krutch
Song: Phenomenon
Album: Phenomenon  2003 Tooth & Nail Records
Tuning: Drop D

The other tabs seemed off in the verse and chorus.

Intro (Sound reduction pedal) 
G|-------------------------------|
D|-------------------------------| x2
A|-------------------------------| 
D|3333-3-3-3333-6666-6-6-1111-1--|

Verse (This is in thirds with the guitars which is why it sounds similar.)
No Pedal
G|-------------------------------|
D|-------------------------------| x6
A|-------------------------------| 
D|3333-3-3-3333-6666-6-6-1111-1--|

Chorus Pt. 1
G|------------------------|
D|------------------------| x3
A|------------------------|
D|1-111-0-000-5-0-5-7-0-7-|

Chorus Pt. 2
G|----------------------------|
D|----------------------------| x1
A|----------------------------|
D|11111111-00000000-5-1-111-0-|

Verse 2 (Soft Part)
G|-------------------------------|
D|-------------------------------| x4
A|-------------------------------| 
D|3333-3-3-3333-6666-6-6-1111-1--|

Verse 2 (Louder Part)
G|-------------------------------|
D|-------------------------------| x2
A|-------------------------------| 
D|3333-3-3-3333-6666-6-6-1111-1--|

Chorus Pt. 1
G|------------------------|
D|------------------------| x3
A|------------------------|
D|1-111-0-000-5-0-5-7-0-7-|

Chorus Pt. 2
G|----------------------------|
D|----------------------------| x1
A|----------------------------|
D|11111111-00000000-5-1-111-0-|


Bridge
G|--------------------------------|
D|--------------------------------| x4
A|----------------1-1-1-1-3-3-3-3-|
D|5-5-5-5-0-0-0-0-----------------|

Chorus (Soft part)
Bass Tacet

Chorus Pt. 1
G|------------------------|
D|------------------------| x1
A|------------------------|
D|1-111-0-000-5-0-5-7-0-7-|

Chorus Pt. 2
G|----------------------------|
D|----------------------------| x1
A|----------------------------|
D|11111111-00000000-5-1-111-0-|

G|--------------------------------|
D|--------------------------------| x1
A|----------------1-1-1-1-3-3-3-3-|
D|5-5-5-5-0-0-0-0-----------------|

G|--------------------------------|
D|--------------------------------| x1
A|--------------------------------|
D|5-5-5-5-0-0-0-0---1-111-0-0000--|

End 

Enjoy!

-Chase-
aka krazykrutchfan












Comments about this tab

No comments/corrections found. Add your own

Complimentary Christian Ringtones
Dadamobile and CGR have teamed up to bring your favorite Christian artists right to your phone. Sign up today and get 10 complementary ringtones!
Tab Country
Did you know CGR has a sister site w/ country guitar tabs? Well we do! Its called Tab Country. It has a great archive with a lot of country tabs.
Rockin Tabs
Are you looking for a site that has rock guitar tabs? Then Rockintabs.com is the place for you. It is a budding site with many rock guitar tabs. Submit your tab today.
Tab Gallery
Tab Gallery has a compilation of christian, rock, and country tabs all in one place. Come visit us.