Bass Tabs
(THIRD DAY) OR BY ARTIST NAME (JENNIFER KNAPP)
0-9|A|B|C|D|E|F|G|H|I|J|K|L|M|N|O|P|Q|R|S|T|U|V|W|X|Y|Z

Join Us Today!

Don't strum alone...
be a part of the largest online Christian music community. Browse thousands of guitar tabs and chat w/ musicians like yourself.


It's Free!

This tab has been rated a 0.00 out of 5 for accuracy. (1 vote)Sorry, but you must be logged in to rate this tab.
Click here to log-in, or you can click here to register.
(Registration is free)

All songs owned by Integrity and Brentwood-Benson are used by permission. If you make copies of any song on this website, be sure to report your usage to CCLI.
Submitted by: Brendan101

artist:hawk nelson
song:california
tabbed by:Brendan101
tuning:standard (g-d-a-e)

INTRO

G|------------|----------------------------------
D|------------|----------------------------------
A|--------2---|----------------------------------   REPEAT AS MANY TIMES AS
E|-2----------|----------------------------------   MANY TIME AS NECCESSARY

VERSE 1

G|-----|--------|---|-----------------------------
D|-----|--------|---|-----------------------------
A|-----|-2---1--|---|-2---4-----------------------   REPEAT
E|-2---|--------|-2-|-----------------------------

BUILDUP

G|-----------|-----------|-----------|-----------|---
D|-----------|-----------|-----------|-----------|---
A|-----------|-2222-1111-|-----------|-2222-4444-|---
E|-2222-2222-|-----------|-2222-2222-|-----------|-2-

CHORUS

G|------|----------|------|----------|-------------|-------|-------|------
D|------|----------|------|----------|-------------|-------|-------|------
A|------|----------|-2222-|-444-4444-|-6666-6-6666-|-66666-|-22222-|-4444-
E|-2222-|-222-2222-|------|----------|-------------|-------|-------|------

INTRO
VERSE 1
BUILD UP
CHORUS
BUILD UP

PART THAT SAYS "COME ON, COME ON, COME ON"

G|----------------------------------------------
D|----------------------------------------------
A|---1---1---1----------------------------------
E|-2---2---2------------------------------------

BUILD UP 2

G|-----------------------------------------------
D|-----------------------------------------------
A|-----------------------------------------------
E|-2222222222222222222222------------------------

CHORUS

THEN ....

G|--------------------------------------------------
D|--------------------------------------------------
A|--------------------------------------------------   REPEAT THE 2 AS MANY 
E|-222222222222-------------------------------------   TIMES NECCESSARY

CHORUS/GUITAR

G|----------------|--------------|-----------------------
D|----------------|--------------|-----------------------
A|-6666--66666----|-22222--44444-|-----------------------
E|----------------|--------------|-----------------------

CHORUS
BUILD UP

"COME ON" PART 2

G|------------------------------------------------
D|------------------------------------------------
A|------------------------------------------------
E|-2--2-2-2-2--2----------------------------------


NOT TO SURE IF IT'S CORRECT, BUT IT'S AS GOOD AS I CAN DO.

Comments about this tab

No comments/corrections found. Add your own

Complimentary Christian Ringtones
Dadamobile and CGR have teamed up to bring your favorite Christian artists right to your phone. Sign up today and get 10 complementary ringtones!
Tab Country
Did you know CGR has a sister site w/ country guitar tabs? Well we do! Its called Tab Country. It has a great archive with a lot of country tabs.
Rockin Tabs
Are you looking for a site that has rock guitar tabs? Then Rockintabs.com is the place for you. It is a budding site with many rock guitar tabs. Submit your tab today.
Tab Gallery
Tab Gallery has a compilation of christian, rock, and country tabs all in one place. Come visit us.