Bass Tabs
(THIRD DAY) OR BY ARTIST NAME (JENNIFER KNAPP)
0-9|A|B|C|D|E|F|G|H|I|J|K|L|M|N|O|P|Q|R|S|T|U|V|W|X|Y|Z

Join Us Today!

Don't strum alone...
be a part of the largest online Christian music community. Browse thousands of guitar tabs and chat w/ musicians like yourself.


It's Free!

This tab has been rated a 5.00 out of 5 for accuracy. (2 votes)Sorry, but you must be logged in to rate this tab.
Click here to log-in, or you can click here to register.
(Registration is free)

All songs owned by Integrity and Brentwood-Benson are used by permission. If you make copies of any song on this website, be sure to report your usage to CCLI.
Submitted by: Brendan101

Tuning:Standard
Tabed by:Brendan101


INTRO
G|----------------------|--------------------------
D|----4----2----7----9--|----7----9-----2----4----- PLUCK  x2
A|----------------------|--------------------------
E|----2----0----5----7--|----5----7-----0----2-----SLAP OR YOU CAN JUST PICK
(LEAVE THE LAST 2 ON THE E STRING OUT THE LAST TIME)

VERSE 1
G|--------|----------|------|---------------------
D|--------|----------|------|---------------------
A|--------|----------|---45-|--------------------- X2
E|-2--4-5-|-5-X-556-7|-7----|--0-X-00-1-2---------


PRE. CHORUS
G|-----------------|------------------------------
D|-----------------|------------------------------
A|--0/4--5555555---|--0/4--4444444----------------
E|-----------------|------------------------------


INTRO
VERSE 1
PRE CHORUS
INTRO
VERSE 1


KEYBOARD BREAK

SOLO SECTION

G|-------------------|-------------------------
D|-4-----------------|--4----------------------
A|----2-0--------012-|-----20--------0---------
E|----------012------|----------012-----02-----


I THINK THAT'S IT GUYS, IT'S MY FIRST SO COMMENT IF THERE'S ANY PROBLEM. GREAT SONG, GREAT GUY, GREAT CD.







Comments about this tab

No comments/corrections found. Add your own

Complimentary Christian Ringtones
Dadamobile and CGR have teamed up to bring your favorite Christian artists right to your phone. Sign up today and get 10 complementary ringtones!
Tab Country
Did you know CGR has a sister site w/ country guitar tabs? Well we do! Its called Tab Country. It has a great archive with a lot of country tabs.
Rockin Tabs
Are you looking for a site that has rock guitar tabs? Then Rockintabs.com is the place for you. It is a budding site with many rock guitar tabs. Submit your tab today.
Tab Gallery
Tab Gallery has a compilation of christian, rock, and country tabs all in one place. Come visit us.