Bass Tabs
(THIRD DAY) OR BY ARTIST NAME (JENNIFER KNAPP)
0-9|A|B|C|D|E|F|G|H|I|J|K|L|M|N|O|P|Q|R|S|T|U|V|W|X|Y|Z

Join Us Today!

Don't strum alone...
be a part of the largest online Christian music community. Browse thousands of guitar tabs and chat w/ musicians like yourself.


It's Free!

This tab has been rated a 5.00 out of 5 for accuracy. (1 vote)Sorry, but you must be logged in to rate this tab.
Click here to log-in, or you can click here to register.
(Registration is free)

All songs owned by Integrity and Brentwood-Benson are used by permission. If you make copies of any song on this website, be sure to report your usage to CCLI.
Submitted by: jonathon.p

Intro 
G------------------------------------
D------------------------------------
A--------4---------------------------
E-----------------6--------4--------2

Verse
G-----------------------------------
D-----------------------------------
A44444444--------22222222-6---------
E--------66666666-----------44444444

Bridge 1
G--------------------------------
D--------------------------------
A44444444--------6---------------
E--------66666666-444444422222222


Chorus
G----------------------------------------
D----------------------------------------
A44444444--------------------------------
E--------44444444666666662222222222222222

G------------------------------------------------
D------------------------------------------------
A-----------------------6666666644444444---------
E444444446666666622222222----------------44444444

Verse
G-----------------------------------
D-----------------------------------
A44444444--------22222222-6---------
E--------66666666-----------44444444

Chorus 

Bridge 2 

wait 1 Messure

G--------------------------------------------------------
D--------------------------------------------------------
A----4------6----4---------------44444444----------------
E222---6---4------4444444442222222-------6666666644444444

G------------------------
D------------------------
A6666666644444444--------
E----------------44444444

Chorus (x2)

Intro

I know its a bit long But It Does Work and it sounds Great 
If Your timing is Right and it got me to Nationals so I Hope you Like.
Pease Rate My First Tab!!!!

Comments about this tab

No comments/corrections found. Add your own

Complimentary Christian Ringtones
Dadamobile and CGR have teamed up to bring your favorite Christian artists right to your phone. Sign up today and get 10 complementary ringtones!
Tab Country
Did you know CGR has a sister site w/ country guitar tabs? Well we do! Its called Tab Country. It has a great archive with a lot of country tabs.
Rockin Tabs
Are you looking for a site that has rock guitar tabs? Then Rockintabs.com is the place for you. It is a budding site with many rock guitar tabs. Submit your tab today.
Tab Gallery
Tab Gallery has a compilation of christian, rock, and country tabs all in one place. Come visit us.