Bass Tabs
(THIRD DAY) OR BY ARTIST NAME (JENNIFER KNAPP)
0-9|A|B|C|D|E|F|G|H|I|J|K|L|M|N|O|P|Q|R|S|T|U|V|W|X|Y|Z

Join Us Today!

Don't strum alone...
be a part of the largest online Christian music community. Browse thousands of guitar tabs and chat w/ musicians like yourself.


It's Free!

This tab has been rated a 5.00 out of 5 for accuracy. (1 vote)Sorry, but you must be logged in to rate this tab.
Click here to log-in, or you can click here to register.
(Registration is free)

All songs owned by Integrity and Brentwood-Benson are used by permission. If you make copies of any song on this website, be sure to report your usage to CCLI.
Submitted by: :)bass(:

G--------------------------------------------------------------------------|
D--------------------------------------------------------------------------|
A--5//////////---------4-4-4-5//////////------------4-4-5////---------7////|
E-------------2////////-----------------2-2-2-5-2-2-------------5////------|

1st VERSE:
G------------------------------|
D------------------------------|
A------2~~-5~~~--9~~-7~~-2-4-5-|       1x
E--5~~-------------------------|

PRE-CHORUS:
G------------------------------|   |G-----------------------------------|
D------------------------------|   |D-----------------------------------|
A--9-9-5-5-5-5----7-7-7-7------| 2x|A--2-2-2-2-2-2-2-2-5-5-5-5-7-7-7-7--|
E-------------5-5--------------|   |E-----------------------------------|

CHORUS:
G-----------------------------------|   |G----------------|
D-----------------------------------|   |D----------------|
A------7-7-5-5-7-7-----7-7-5-5-7-XXX|2X |A--9~-7~-5~-7~---|
E--5-5-------------5-5--------------|   |E----------------|

2nd VERSE:
G-----------------------------------------------|
D-----------------------------------------------|
A--------**2-2-2-**5-5-5-**5-5-5---9~-7~-2-4-5--| 2X
E--**5-5-5--------------------------------------|


PLAY PRE-CHORUS

PLAY CHORUS

THEN SOLO:
G--------------------------------------------------------------------|
D--------------------------------------------------------------------|
A--------------4-4-5-5-5-5-5-5-5-5-----------------------------------| 2X
E--2-2-2-5-2-2---------------------5-5-5-5-5-5-5-5-7-7-7-7-7-7-7-7--|

THEN PRETTY PIANO PART; IN MIDDLE PLAY:
G---------------------------------------------|
D---------------------------------------------|
A--9-5-PAUSE-2-2-2-2-2-2-2-2-5-5-5-5-7-7-7-7--|
E---------------------------------------------|

PLAY CHORUS

@ END IN PIANO PART YOU PLAY:
G--------------------|
D--------------------|                    
A--------------------|                    
E--2-2-2-2-2-2-2-2---|                    

Comments about this tab

iwant2playgetar - 2004-07-12

does any one know were i can get the lyrics for this??
It Would be verry mucho helpful to mee


MacOwan - 2005-03-04

i think that lyrics should be shown too.


je_marie72 - 2006-01-11

is there a substitute for B ?

♪♪♪


bloopa - 2006-03-24

here is the site for the lyrics: http://www.christianlyricsonline.com/artists/rachael-lampa/live-for-you.html

also does anyone know the tab for this song? I cant figure out the spanish sounding stuff. Is it just a pick pattern for each chord? If it is i'll feel dumb but i would still like to know.....


Add a comment/correction

Complimentary Christian Ringtones
Dadamobile and CGR have teamed up to bring your favorite Christian artists right to your phone. Sign up today and get 10 complementary ringtones!
Tab Country
Did you know CGR has a sister site w/ country guitar tabs? Well we do! Its called Tab Country. It has a great archive with a lot of country tabs.
Rockin Tabs
Are you looking for a site that has rock guitar tabs? Then Rockintabs.com is the place for you. It is a budding site with many rock guitar tabs. Submit your tab today.
Tab Gallery
Tab Gallery has a compilation of christian, rock, and country tabs all in one place. Come visit us.