Bass Tabs
(THIRD DAY) OR BY ARTIST NAME (JENNIFER KNAPP)
0-9|A|B|C|D|E|F|G|H|I|J|K|L|M|N|O|P|Q|R|S|T|U|V|W|X|Y|Z

Join Us Today!

Don't strum alone...
be a part of the largest online Christian music community. Browse thousands of guitar tabs and chat w/ musicians like yourself.


It's Free!

This tab has not yet been rated for accuracy.Sorry, but you must be logged in to rate this tab.
Click here to log-in, or you can click here to register.
(Registration is free)

All songs owned by Integrity and Brentwood-Benson are used by permission. If you make copies of any song on this website, be sure to report your usage to CCLI.
Submitted by: excellent_rawk

You need to put this in because I fixed the problems


artist: relient k
album: mmhmm

~=HOLD
*=LONG
	INTRO
G------------------------------------------------------------------------------------
D--00000000000000000-------------000000000000--------4-4-----00000000--------22222222
A------------------------------44------------------------4-4-------------------------
E-------------------22222222222---------------2-2-2-2----------------5555555---------
	
	VERSE 1
G----------------------------
D--------------4~~-2~~----0--
A--0~~2~~-4~~------------2-4-
E----------------------------

	PRE-CHORUS
G---------------------       G-------------------
D--4-4-0-0-0-----2-2-2       D----------0000-2222
A------------0-0------  THEN A--22222222--------- 
E---------------------       E-------------------

	CHORUS

G------------------------------         G---------------
D-----2-2-0-0-2-2-----2-2-0-0-2         D-4~~-2~~----2~~    
A--0-0------------0-0---------- 2x THEN A---------2~~---
E------------------------------         E---------------


	VERSE 2 SAME AS VERSE 1 ONLY A LITTLE FASTER
	PRE-CHORUS
	CHORUS

	SOLO
G-------------------------------------------------------------
D--------4-4----0-0-0-0-0-0-0-0-------------------------------
A-------4----4-4---------------0-0-0-0-0-0-0-0-2-2-2-2-2-2-2-2
E-2-2-2-------------------------------------------------------


	FILL AFTER PRE CHORUS, EXCEPT IN PIANO PART PLAY D-4-0
	CHORUS
	IN END PIANO PART PLAY E-2-2-2-2-2-2-2-2-2


And thats all folks. relient k is most definetly the best punk band since the ramones fell free to comment or correct

Comments about this tab

No comments/corrections found. Add your own

Complimentary Christian Ringtones
Dadamobile and CGR have teamed up to bring your favorite Christian artists right to your phone. Sign up today and get 10 complementary ringtones!
Tab Country
Did you know CGR has a sister site w/ country guitar tabs? Well we do! Its called Tab Country. It has a great archive with a lot of country tabs.
Rockin Tabs
Are you looking for a site that has rock guitar tabs? Then Rockintabs.com is the place for you. It is a budding site with many rock guitar tabs. Submit your tab today.
Tab Gallery
Tab Gallery has a compilation of christian, rock, and country tabs all in one place. Come visit us.