Bass Tabs
(THIRD DAY) OR BY ARTIST NAME (JENNIFER KNAPP)
0-9|A|B|C|D|E|F|G|H|I|J|K|L|M|N|O|P|Q|R|S|T|U|V|W|X|Y|Z

Join Us Today!

Don't strum alone...
be a part of the largest online Christian music community. Browse thousands of guitar tabs and chat w/ musicians like yourself.


It's Free!

This tab has been rated a 4.80 out of 5 for accuracy. (5 votes)Sorry, but you must be logged in to rate this tab.
Click here to log-in, or you can click here to register.
(Registration is free)

All songs owned by Integrity and Brentwood-Benson are used by permission. If you make copies of any song on this website, be sure to report your usage to CCLI.
Submitted by: Dani_Boy

Artist: Thousand Foot Krutch
Song: Move
Album: The Art of Breaking

This is a teamwork tab made by basist Philip and guitarist Daniel.
This is my first base tab /Daniel
Duh! This is my first TAB ever! /Philip
Anyway, we're pretty convinced that the tab is accurate since we’ve been
double-checking every part several times and it took us more than two hours.
Please feel free to comment. Enjoy!

No base in the intro.

  Chorus (Version 1):
G|-----------2-2-244-|---------2--2-0---|----------2-2-244-|
D|-----4-0-----------|-----4-4--------4-|----4-0-----------|
A|--2-----2----------|-2-2--------------|-2-----2----------|
E|-------------------|------------------|------------------|

G|--------------7-----|
D|------4-4-55----7-7-|
A|--2-2---------------|
E|--------------------|

  Verse:
G|----------|---------|----2220-|----2444-|
D|-----4445-|----5544-|---------|---------|
A|--222-----|-222-----|-222-----|-2-2-----|
E|----------|---------|---------|---------|

G|----------|---------|----2220-|---------|
D|-----4445-|----5544-|---------|---------|
A|--222-----|-222-----|-222-----|---------|
E|----------|---------|---------|---------|

G|----------|---------|----2220-|----2444-|
D|-----4445-|----5544-|---------|---------|
A|--222-----|-222-----|-222-----|-2-2-----|
E|----------|---------|---------|---------|

G|----------|---------|----2220-|----244--|
D|-----4445-|----5544-|---------|---------|
A|--222-----|-222-----|-222-----|-2-2-----|
E|----------|---------|---------|---------|

Chorus (Version 1)
 
  Chorus (Version 2):
G|-----------2-2-244-|---------2--2-0---|----------2-2-244-|
D|-----4-0-----------|-----4-4--------4-|----4-0-----------|
A|--2-----2----------|-2-2--------------|-2-----2----------|
E|-------------------|------------------|------------------|

G|--------------7-----|
D|------4-4-77----7-7-|
A|--2-2---------------|
E|--------------------|

Play the second fret of the A string and let ring.

Verse 2: 
Only drums and vocals for a while, guitar does a riff, then play:

G|----------|---------|----2220-|----2444-|
D|-----4445-|----5544-|---------|---------|
A|--222-----|-222-----|-222-----|-2-2-----|
E|----------|---------|---------|---------|

G|----------|---------|----2220-|----244--|
D|-----4445-|----5544-|---------|---------|
A|--222-----|-222-----|-222-----|-2-2-----|
E|----------|---------|---------|---------|

Chorus (Version 1)

Chorus (Version 2)

  Bridge:
G|-------------------------------------------------|
D|--7-7-7-7-7-7-7--5--5-5-5-5-5-5-5----------------|
A|-----------------------------------2---2---2---2-| x2
E|-------------------------------------------------|

G|-------------------------------------------------------------|
D|--5---5--5---5-7-7-7-7-7-7-7-7-5---5--5---5-9-9-9-9-7-7-7-7--|
A|-------------------------------------------------------------|
E|-------------------------------------------------------------|

G|----------------------------------------------|
D|--5---5--5---5-7-7-7-7-7-7-7-7-7~--------5~---|
A|----------------------------------------------|
E|----------------------------------------------|
  ~ = Let ring. Play last note very soft.

Chorus (Version 2)x4

Note: In this song they play two different versions of the chorus. They are
both the same except for a slight change in the ending.


That all there is to it. TFK ROCKS!!!
God Bless,
Daniel and Philip

Comments about this tab

No comments/corrections found. Add your own

Complimentary Christian Ringtones
Dadamobile and CGR have teamed up to bring your favorite Christian artists right to your phone. Sign up today and get 10 complementary ringtones!
Tab Country
Did you know CGR has a sister site w/ country guitar tabs? Well we do! Its called Tab Country. It has a great archive with a lot of country tabs.
Rockin Tabs
Are you looking for a site that has rock guitar tabs? Then Rockintabs.com is the place for you. It is a budding site with many rock guitar tabs. Submit your tab today.
Tab Gallery
Tab Gallery has a compilation of christian, rock, and country tabs all in one place. Come visit us.