Bass Tabs
(THIRD DAY) OR BY ARTIST NAME (JENNIFER KNAPP)
0-9|A|B|C|D|E|F|G|H|I|J|K|L|M|N|O|P|Q|R|S|T|U|V|W|X|Y|Z

Join Us Today!

Don't strum alone...
be a part of the largest online Christian music community. Browse thousands of guitar tabs and chat w/ musicians like yourself.


It's Free!

This tab has not yet been rated for accuracy.Sorry, but you must be logged in to rate this tab.
Click here to log-in, or you can click here to register.
(Registration is free)

All songs owned by Integrity and Brentwood-Benson are used by permission. If you make copies of any song on this website, be sure to report your usage to CCLI.
Artist:The Huntingtons
Title:Don't Beat Me Up
Album:Fun And Games
Tabbed By:Bryan Davis(punx121@hotmail.com) 
This is the first tab I have written.  So sorry if it is wrong.


Part 1: Played Very Fast
G:---------------------------
D:---------------------------
A:--5-5-5-5-5-5-7------------
E:----------------7-5--------


Part 2: I don't really know how many times this is played 
G:-----------------------------
D:-----------------------------
A:--5-5-5-5-5-5-5-5-5-5-5-5----
E:-----------------------------


Part 3:
G:---------------------------------
D:---------------------------------
A:----5-5---5-5---5-5-7-7-9--------
E:--5-----5-----5------------------


Part 4:I'm not sure if these are the actual notes played
G:-------------------------------------
D:-------------------------------------
A:-------------------------------------
E:--2-2-2-2-5-5-5-5-1-1-1-1-3-3-3-3----


Part 5:
G:------------------------------
D:------------------------------
A:--5---------7-----------------
E:--------------7-5-------------
OK, those are the notes, this is the order


Part 1: 2X
Part 2: 1X
Part 1: 4X
Part 3: 4X
Part 1: 4X
Part 3: 4X
Part 1: 4X
Part 4: 2X
Part 1: 4X
Part 3: 4X
Part 1: 4X
Part 5: 5X


OK that is my version of the song.  I hope it is right.  E-mail me if 
wrong or if you love punk, ska, or hardcore.

Comments about this tab

No comments/corrections found. Add your own

Complimentary Christian Ringtones
Dadamobile and CGR have teamed up to bring your favorite Christian artists right to your phone. Sign up today and get 10 complementary ringtones!
Tab Country
Did you know CGR has a sister site w/ country guitar tabs? Well we do! Its called Tab Country. It has a great archive with a lot of country tabs.
Rockin Tabs
Are you looking for a site that has rock guitar tabs? Then Rockintabs.com is the place for you. It is a budding site with many rock guitar tabs. Submit your tab today.
Tab Gallery
Tab Gallery has a compilation of christian, rock, and country tabs all in one place. Come visit us.