Bass Tabs
(THIRD DAY) OR BY ARTIST NAME (JENNIFER KNAPP)
0-9|A|B|C|D|E|F|G|H|I|J|K|L|M|N|O|P|Q|R|S|T|U|V|W|X|Y|Z

Join Us Today!

Don't strum alone...
be a part of the largest online Christian music community. Browse thousands of guitar tabs and chat w/ musicians like yourself.


It's Free!

This tab has been rated a 4.83 out of 5 for accuracy. (6 votes)Sorry, but you must be logged in to rate this tab.
Click here to log-in, or you can click here to register.
(Registration is free)

All songs owned by Integrity and Brentwood-Benson are used by permission. If you make copies of any song on this website, be sure to report your usage to CCLI.
Submitted by: Farm_Hick_4Life

Artist: Audio Adrenaline
Song: Clap Your Hands
Album: Until My Heart Caves In
Produced: Jay Joyce 


This is a pretty easy song, in standard tuning- EADG

Intro:
G----------		G----
D----------		D----
A--22222222		A-2--
E---------- x7		E----


Pre-Verse:
G----------------------------------
D-0-------0-------0-------2222---
A----222-----222-----222-------2222
E---------------------------------- x2

Verse:
G------------------------------------------------
D---------------------------------------------2--
A-0-22-0-22-0-22-0-22-0-22-0-22-0-22------
E------------------------------------------------

Chorus:
G------------------------------------
D-0-------0-------0------2222-------
A----222-----222-----222------2222--2
E------------------------------------

Guitar Solo:
G------------------
D------------------
A-2-2-2-2-2-2-2-2-
E------------------ x4

Bass Solo:
G------------------------------
D----------------------22220000
A-22-2-0222-2-02222-0--------	
E------------------------------ x2

Bridge:
G-----------------
D-----------------
A2-2-2-2-2-2-2-2-
E-----------------x5

Final Chorus:
G-------------------------------------------
D-------------------------------------------
A2-2-222220-0-00000-2-2-22222-0-0-00-1111-
E------------------------------------------- x2

G-----------------------------------		G----
D--0---0---0---2---0---0---22220000-		D2--
A--2---2---2---2---2---2-----------		A----
E----------------------------------- x2		E----

Order:

Intro
Pre-Verse 
Verse 
Chorus
Verse
Chorus (x2)
Guitar Solo
Bass Solo 
Bridge
Final Chorus

Comments about this tab

Honor - 2004-06-13

the chord that's 010033 is called D/B


Honor - 2004-06-15

some people call it a Em7, too.. but I call it a G/B


Add a comment/correction

Complimentary Christian Ringtones
Dadamobile and CGR have teamed up to bring your favorite Christian artists right to your phone. Sign up today and get 10 complementary ringtones!
Tab Country
Did you know CGR has a sister site w/ country guitar tabs? Well we do! Its called Tab Country. It has a great archive with a lot of country tabs.
Rockin Tabs
Are you looking for a site that has rock guitar tabs? Then Rockintabs.com is the place for you. It is a budding site with many rock guitar tabs. Submit your tab today.
Tab Gallery
Tab Gallery has a compilation of christian, rock, and country tabs all in one place. Come visit us.