Bass Tabs
(THIRD DAY) OR BY ARTIST NAME (JENNIFER KNAPP)
0-9|A|B|C|D|E|F|G|H|I|J|K|L|M|N|O|P|Q|R|S|T|U|V|W|X|Y|Z

Join Us Today!

Don't strum alone...
be a part of the largest online Christian music community. Browse thousands of guitar tabs and chat w/ musicians like yourself.


It's Free!

This tab has been rated a 5.00 out of 5 for accuracy. (1 vote)Sorry, but you must be logged in to rate this tab.
Click here to log-in, or you can click here to register.
(Registration is free)

All songs owned by Integrity and Brentwood-Benson are used by permission. If you make copies of any song on this website, be sure to report your usage to CCLI.
Submitted by: GhotiHookRocker

Do or Die 
by. Dogwood

This is one of my favorite songs, by one of the best christian punk bands around..
Here is the full complete correct version of the song. 

/ = slide to connect notes

Intro...(these are not the right amounts to play the notes but just a guideline)

--7-7-7-7-7-7---6-6-6-6-6-6----/11-11-11-11-11-11----4-4-4-4-4-4---6-6-6-6-6-6
-9-9-9-9-9-9---7-7-7-7-7-7----/12-12-12-12-12-12----5-5-5-5-5-5---7-7-7-7-7-7-
------------------------------------------------------------------------------
------------------------------------------------------------------------------

Second Time around (still intro)(not enough space to write exact amounts each note
should be hit. Just listen to the song for the number of times)

-7-7-7-9-9-7---6-6-6-9-9-6----/11-11-11-14-14-11----4-4-4-4-4-4(play these  
9-9-9-9-9-9---7-7-7-7-7-7----/12-12-12-12-12-12----5-5-5-5-5-5(twice as long)
------------------------------------------------------------------------------
------------------------------------------------------------------------------

--6-6-6-6-6-6------------
-7-7-7-7-7-7-------------
--------------0 (let ring)
-------------------------

OKAY now verse (2x)

------------------------------------------|-------------------------------------
------------------------------------------|55555555555--------------------------
-2222--44-55----------555555555-----------|-------------------------------------
-------------555555555---------33333333333|(on the second time you add and end with this)

pre-chours (1x) around (:47 seconds)

---------------------------------------------------
---------------------------------------------------
--22222222222--------------------------------------
-------------55555555555555555555555555555555555555

Chours 

-------------------------------------------------------------------------------
-------------------------------------------------------------------------------
55555555555555-----------------------------------------------------------------
---------------3/5555-3/5555-3/55555555555-33333333333333--555555555555-5-5-5-5

then verse again except its (3x) not 2 and with minor variations(order just tweeked)

Pre-chours about (1:45)

Chours

Bridge- (just play whole intro again only using the riffs in both repitions)
(and dont end with open just play on)

Chours 

Outro- Repeat Bridge just end like so

------------///12---(hold)
----------///11----(let ring)
----------------------------
---------------------------

Well there you have it kids! It should be 100% right If theres any mistakes its 
cause this is my first tab and Im new to this writing it out stuff... but anyways
if you have and questions or comments or requests haha email me 

Simplehumaniod@yahoo.com

-Monster Mike

Comments about this tab

No comments/corrections found. Add your own

Complimentary Christian Ringtones
Dadamobile and CGR have teamed up to bring your favorite Christian artists right to your phone. Sign up today and get 10 complementary ringtones!
Tab Country
Did you know CGR has a sister site w/ country guitar tabs? Well we do! Its called Tab Country. It has a great archive with a lot of country tabs.
Rockin Tabs
Are you looking for a site that has rock guitar tabs? Then Rockintabs.com is the place for you. It is a budding site with many rock guitar tabs. Submit your tab today.
Tab Gallery
Tab Gallery has a compilation of christian, rock, and country tabs all in one place. Come visit us.