Bass Tabs
(THIRD DAY) OR BY ARTIST NAME (JENNIFER KNAPP)
0-9|A|B|C|D|E|F|G|H|I|J|K|L|M|N|O|P|Q|R|S|T|U|V|W|X|Y|Z

Join Us Today!

Don't strum alone...
be a part of the largest online Christian music community. Browse thousands of guitar tabs and chat w/ musicians like yourself.


It's Free!

This tab has not yet been rated for accuracy.Sorry, but you must be logged in to rate this tab.
Click here to log-in, or you can click here to register.
(Registration is free)

All songs owned by Integrity and Brentwood-Benson are used by permission. If you make copies of any song on this website, be sure to report your usage to CCLI.
Submitted by: switchfoot911

Artist: Switchfoot
Song: Lonely Nation
Album: Nothing Is Sound

Drop D Tuning

h= hold
/= slide

This song is really fun and is probably one of my favorites. 
I'm pretty sure it's all right but not 100 percent positive. 
I did have some trouble with the intro/verse... 
I'm not too sure what Tim is playing there but I have a general idea. 
Please leave comments and corrections. thanx and God bless.

Intro/Verse: 

G ------------------------------|          |-----------|
D ------------------------------|   X 7  |-----------|
A--------------------5-5-5-5-5-| then: |-33333333- |
D -0/2-2-2-2 0h-0 2-2-----------|          |-----------|

G ------------------------------|          |------------------------------|
D ------------------------------     X 3 |------------------------------|
A--------------------5-5-5-5-5-| then: |-33333333-22222222-33333333-|
D -0/2-2-2-2 0h-0 2-2-----------|          |------------------------------|

Chorus:

G----------------------------------------------------- |
D--------------------4/5-----------5h----------------- | X 2
A--------5h--------------3333---3----3333---3-5h----- | 
D-5h---5-----0h---0-----------------------------------|

Verse:

G ------------------------------|          |-----------------|
D ------------------------------|   X 7  |-----------------|
A--------------------5-5-5-5-5-| then: |-33333333--2h/0- |
D -0/2-2-2-2 0h-0 2-2-----------|          |-----------------|

G ------------------------------|          |-----------|
D ------------------------------|   X 3  |-----------|
A--------------------5-5-5-5-5-| then: |-33333333- |
D -0/2-2-2-2 0h-0 2-2-----------|          |-----------|

Chorus:

G----------------------------------------------------- |
D--------------------4/5-----------5h----------------- | X 2
A--------5h--------------3333---3----3333---3-5h----- | 
D-5h---5-----0h---0-----------------------------------|

Bridge:

G----------------------------------------------------------------|
D--------5555--12-12-12-12-9999--------5555--14-14-14-14-9999-|
A--3333---------------------------3333--------------------------|
D--------------------------------------------------------------- |

G-----------------------------------------------------|
D-0000----------------------------------------------- |
A-----------------------------------------5--------5--|
D----------0000--0-2-2-0h--0-2-2-0h--0-2---2-0-2----|

Verse 2:

G--------------------------------------------------|          
D-0-2--2-5-2--2-0-2--2-5555-2222/5555/4444/2222- |          
A--------------------------------------------------| then: 
D--------------------------------------------------|        

G---------------|          |--------------------------------|
D-0-2h--2-0000- |  X 4  |----------------5555/4444/2222-|
A---------------| then: |-333333333333------------------| then:
D---------------|          |--------------------------------|

G--------------------------------------------------|        
D-0-2--2-5-2--2-0-2--2-5555-2222/5555/4444/2222- |         
A--------------------------------------------------| then:
D--------------------------------------------------|         

G---------------|
D-0-2h--2-0000- |  X 4
A---------------| then:
D---------------|

G-------------------------------------------------------------- |
D----------------5555/4444/2222-0 222222222-------------------|
A-333333333333------------------------------333333333-5555555| 
D-------------------------------------------------------------- |

Chorus:

G----------------------------------------------------- |
D--------------------4/5-----------5h----------------- | X 2
A--------5h--------------3333---3----3333---3-5h----- | 
D-5h---5-----0h---0-----------------------------------|

Outro:

G------------------------------------------------------------------|
D------------------------------------------------------------------|
A------------------5555------------------5555------5-------5------|
D-0-222 0 222 0 222 -----0 222 0 222-0 222-------0-2---2-0-2---2-3h-|


Well that's everything. Please add any corrections. Enjoy!
Tabbed By Kevin Williams

Comments about this tab

Jaymze13 - 2005-06-23

The "B" should really be a "Bm". The guy is right, it is easy chord wise, but you need to listen carefully to some of the nifty little stops the song has and make sure you get your timing right on the.


Add a comment/correction

Complimentary Christian Ringtones
Dadamobile and CGR have teamed up to bring your favorite Christian artists right to your phone. Sign up today and get 10 complementary ringtones!
Tab Country
Did you know CGR has a sister site w/ country guitar tabs? Well we do! Its called Tab Country. It has a great archive with a lot of country tabs.
Rockin Tabs
Are you looking for a site that has rock guitar tabs? Then Rockintabs.com is the place for you. It is a budding site with many rock guitar tabs. Submit your tab today.
Tab Gallery
Tab Gallery has a compilation of christian, rock, and country tabs all in one place. Come visit us.