Bass Tabs
(THIRD DAY) OR BY ARTIST NAME (JENNIFER KNAPP)
0-9|A|B|C|D|E|F|G|H|I|J|K|L|M|N|O|P|Q|R|S|T|U|V|W|X|Y|Z

Join Us Today!

Don't strum alone...
be a part of the largest online Christian music community. Browse thousands of guitar tabs and chat w/ musicians like yourself.


It's Free!

This tab has been rated a 4.50 out of 5 for accuracy. (2 votes)Sorry, but you must be logged in to rate this tab.
Click here to log-in, or you can click here to register.
(Registration is free)

All songs owned by Integrity and Brentwood-Benson are used by permission. If you make copies of any song on this website, be sure to report your usage to CCLI.
Submitted by: guitar man4

Chaos
Mute Math

This is one of the songs off of Mute Math's new album.  Though their new album
is not yet available in stores, you can download this song for free off of
Mute Math's myspace page (look for a link off of www.mutemath.com).

This tab is very basic--this song is full of all kinds of scales that are
next to impossible accurately tab out in some parts of the song.  I included 
as much of the song as I could tab out.  If you play around with it for a 
while you could probably figure out the scales...Anyways, here's the tab.

Key: h=hammer on
     p=pull off
     /=slide up
     \=slide down
     *=sustain note

Verse 1
Listen for when bass enters...

G-----------11--------
D-11h13p11-9----9-11--  Repeat this the entire verse.
A---------------------
E-------------------9-

Prechorus

G----------------------------------
D--------/13*-----\4444444444444444-
A-2*--------------------------------
E----------------------------------

Chorus
Crazy fast fingerpicking.

G-----------------------------------------------------------------------------
D-77777777-44444444------------------/77777777-44444444-----------------------
A-------------------4444444244444444--------------------44444444/161616161616-
E-----------------------------------------------------------------------------
                                                 These are sixteens^
G--------------------------------------------------------------
D------77777777-44444444------------------77777777-44444444----
A-1616-------------------4444444244444444-------------------4*-
E--------------------------------------------------------------

Verse 2--same bass line as Verse 1
Prechorus 2--same as Prechorus 1
Chorus 2--same general pattern as Chorus 1 but with a little extension at the 
end before the instrumental that goes like this:
(Extension--2:15)

G-----------------------------------------------------------------------------
D-77777777-44444444---------------------------77777777-44444444---------------
A-------------------44444444/1616161616161616-------------------4444444424444-
E-----------------------------------------------------------------------------
                      sixteens^

After that, from 2:24 to 2:45 this is repeated 4X:

G------------
D------------
A-2*------4*-
E------------

At 2:45...

G-----------------------------------------------------------------------------
D-77777777-44444444-------------------77777777-44444444-----------------------
A-------------------44444444244444222-------------------/16161616161616161616-
E-----------------------------------------------------------------------------

G----------------------------------------------------------------------------
D-------13-9-77777777-44444444-----------/11-11-11-7777-77777777-44444444/11-
A-161616-----------------------44444444-4------------------------------------
E----------------------------------------------------------------------------

At  about 3:16...

G-------------------------------------
D-11----------------------------------
A---11-11-11-11-----------11-11-11-11-
E-------------------------------------

At 3:28...
Syncopated bass notes
I'm not quite sure how accurate this part is...I'm doing it from memory.
G-----------------------------------------------------------------------------
D-----------------------------------------------------------------------------
A-11--11--11-11--11-11---11-11--11--11-11--11-11-11-11\-4--4--4-4--4-4-4--4-4-
E-----------------------------------------------------------------------------

G---------------
D---------------
A-2-4--4--4-4-4-
E---------------

At about 4:00, play this...(Ending)

G---------------
D---------------
A-/11*------\4*-
E---------------
This is played until the end of the song.  It kind of sounds like he might go 
into a bunch of crazy scales in the last few seconds, but the other 
instruments cover up whatever the bass is doing.  Have fun messing around with
it yourself :-) If you have any questions leave a comment or PM me (my 
username is guitar man4).

Enjoy
Tabbed by Keith Perez

Comments about this tab

Guitaralison - 2006-06-15

Could you tab out the flat picking for me? Thanks!!


marandur - 2006-06-16

The part where you go "G/B C2 D9" really fast like at "hope against time" should go "G/B C2 G6 D9" maybe... I don't know that it's called "G6" but it goes xx0022 and they should all be picked once and rapidly move on to the next one. I don't have such a developed ear as some, but I distinctly heard 4 chords and the progression was familiar.


Guitar1598009 - 2006-11-29

Hey Gitaralison I tabed it all out and put it on 911 tabs and ultamate-guitar so if ur interested in the tab its there no wait ill just put on this sit

Peace


Add a comment/correction

Complimentary Christian Ringtones
Dadamobile and CGR have teamed up to bring your favorite Christian artists right to your phone. Sign up today and get 10 complementary ringtones!
Tab Country
Did you know CGR has a sister site w/ country guitar tabs? Well we do! Its called Tab Country. It has a great archive with a lot of country tabs.
Rockin Tabs
Are you looking for a site that has rock guitar tabs? Then Rockintabs.com is the place for you. It is a budding site with many rock guitar tabs. Submit your tab today.
Tab Gallery
Tab Gallery has a compilation of christian, rock, and country tabs all in one place. Come visit us.