Bass Tabs
(THIRD DAY) OR BY ARTIST NAME (JENNIFER KNAPP)
0-9|A|B|C|D|E|F|G|H|I|J|K|L|M|N|O|P|Q|R|S|T|U|V|W|X|Y|Z

Join Us Today!

Don't strum alone...
be a part of the largest online Christian music community. Browse thousands of guitar tabs and chat w/ musicians like yourself.


It's Free!

This tab has been rated a 5.00 out of 5 for accuracy. (2 votes)Sorry, but you must be logged in to rate this tab.
Click here to log-in, or you can click here to register.
(Registration is free)

All songs owned by Integrity and Brentwood-Benson are used by permission. If you make copies of any song on this website, be sure to report your usage to CCLI.
Submitted by: bassfreek208

1997- Newsboys-Step Up to the Microphone
This is (finally) a 100% CORRECT tab of 'Breakfast!'

I was speaking with  Phil Joel before a recent Newsboys concert at the 
'meet and greet' session, and we were talking about the electric bass and 
also the Newsboys song 'Breakfast' (which is one of my favorites by my favorite 
band.) One of the things that he mentioned was that Breakfast is played in 
drop C#. So, here is my faithful reproduction of Breakfast-in C#.

Verse
G |-----------------------------------------------------------------------|
D |----------2----------------------------------2-------------------------|
A |-4---4-4----4-2-4-2-2-2-2-2-2-2-2-2-4---4-4----4-2-4-2-2-2-2-2-2-2-2-2-|
C#|---0----------------------------------0--------------------------------|

G |------------------------------------------------------------------------|
D |------------------------------------------------------------------------|
A |------------------------------------------------------------------------|
C#|-5-5--5-5-3-3-3-3-8-8-8-8\5-5--5-5-3-3-3-3-8-7-5-5--5-5-3-3-3-3-8-8-8-8-|

Chorus
G |-----------------------------------------------------------|
D |-----------------------------------------------------------|
A |5-5-5-5--------------------------5-5-5-5-------------------|
C#|--------8-8-8-8-5-5-5-5/8-8-8-8-----------8-8-8-8-3-3--3-3-|

G |-----------------------------------------------------------|
D |-----------------------------------------------------------|
A |5-5-5-5--------------------------5-5-5-5-------------------|
C#|--------8-8-8-8-5-5-5-5/8-8-8-8-----------8-8-8-8-3-3--3-3-|

Bridge
G |-------------------------------------|
D |-------------------------------------|
A |---------------------5---5-----5---5-|
C#|3---8---3---8---3-8----8---3-8---8---|

Whistling Part
G |-------------------------------------------|
D |-------------------------------------------| the second C# D E run is faster
A |---------------4-5-7-----------------4-5-7-| than the first is...listen to
C#|-3-3-7-8-7-8-8-------3-3-7-8-7-8-8---------| the song for the timing

G |-------------------------------------------| once again, the second C# D E 
D |-------------------------------------------| run is faster than the first 
A |---------------4-5-7-----------------4-5-7-| is...listen to the song for 
C#|-3-3-7-8-7-8-8-------3-3-7-8-7-8-8---------| the timing

Ending
Play the chorus until the song ends.


Comments about this tab

Gtr4daKING - 2006-09-21

this is a pretty good version, not too many out though.


Add a comment/correction

Complimentary Christian Ringtones
Dadamobile and CGR have teamed up to bring your favorite Christian artists right to your phone. Sign up today and get 10 complementary ringtones!
Tab Country
Did you know CGR has a sister site w/ country guitar tabs? Well we do! Its called Tab Country. It has a great archive with a lot of country tabs.
Rockin Tabs
Are you looking for a site that has rock guitar tabs? Then Rockintabs.com is the place for you. It is a budding site with many rock guitar tabs. Submit your tab today.
Tab Gallery
Tab Gallery has a compilation of christian, rock, and country tabs all in one place. Come visit us.