Bass Tabs
(THIRD DAY) OR BY ARTIST NAME (JENNIFER KNAPP)
0-9|A|B|C|D|E|F|G|H|I|J|K|L|M|N|O|P|Q|R|S|T|U|V|W|X|Y|Z

Join Us Today!

Don't strum alone...
be a part of the largest online Christian music community. Browse thousands of guitar tabs and chat w/ musicians like yourself.


It's Free!

This tab has been rated a 4.00 out of 5 for accuracy. (2 votes)Sorry, but you must be logged in to rate this tab.
Click here to log-in, or you can click here to register.
(Registration is free)

All songs owned by Integrity and Brentwood-Benson are used by permission. If you make copies of any song on this website, be sure to report your usage to CCLI.
Submitted by: bass_man65

This is my first tab and I'm pretty sure this is right.
This is the way my band plays it and It sounds good with the CD

G)-------------------------------
D)----------------3--------------
A)----5p3h5--5p3h5--------------8
E)------------------7p5h7--7p5h7-

Notice the 3 on the D string and the 8 on the A string, They are the same note 
so you dont have to make the jump clear up the fretboard

If you listen to the song you should be able to judge when the rythem goes
to the part like the intro but faster and smoother so its like this

G)---------------------------------------------------
D)--------------3333---------------------------------
A)----------/5-------5p3h55p3h55p3h5----------------8
E)/3----/3---------------------------7p5h77p5h77p5h7-

then the Jam part is pretty much just 

D      E      G      D
over and over again, or however you want to play the song.
I just think the intro sounds better with the pulls and hammers

Comments about this tab

inhissteps33 - 2009-01-02

There was small error with these in the first and third measures (3p2). I fixed it, but thanks for the tabs! Not really good at this tab stuff yet. :)


-0------0----------|--------------|-0-----0---------|-----------------|-------
---------------3p2-|---0-----0----|-------------3p2-|---0-------------|-------
-----2-------------|-2-------0----|-----2-----------|-2--------1------|-------
---2---------------|--------------|---3-------------|-2------2--------|-------
-0-----------------|--------------|-----------------|-----------------|-------
-------------------|-3-------3----|-1---------------|-0--------0------|-------


-------------------|--------------|------------------0-|--------------|-------
-3-----3-------1p0-|--------------|-3----------0h1-3---|-1---0--------|-------
-----0-------------|-0-2-----2----|-0-------0h2--------|---------2----|-------
---0---------------|---------3----|--------------------|---------3----|-------
-------------------|--------------|--------------------|-0-------3----|-------
-3-----------------|-1------------|-3------------------|--------------|-------

In His Steps,
Theo:)


Add a comment/correction

Complimentary Christian Ringtones
Dadamobile and CGR have teamed up to bring your favorite Christian artists right to your phone. Sign up today and get 10 complementary ringtones!
Tab Country
Did you know CGR has a sister site w/ country guitar tabs? Well we do! Its called Tab Country. It has a great archive with a lot of country tabs.
Rockin Tabs
Are you looking for a site that has rock guitar tabs? Then Rockintabs.com is the place for you. It is a budding site with many rock guitar tabs. Submit your tab today.
Tab Gallery
Tab Gallery has a compilation of christian, rock, and country tabs all in one place. Come visit us.