Bass Tabs
(THIRD DAY) OR BY ARTIST NAME (JENNIFER KNAPP)
0-9|A|B|C|D|E|F|G|H|I|J|K|L|M|N|O|P|Q|R|S|T|U|V|W|X|Y|Z

Join Us Today!

Don't strum alone...
be a part of the largest online Christian music community. Browse thousands of guitar tabs and chat w/ musicians like yourself.


It's Free!

This tab has been rated a 5.00 out of 5 for accuracy. (1 vote)Sorry, but you must be logged in to rate this tab.
Click here to log-in, or you can click here to register.
(Registration is free)

All songs owned by Integrity and Brentwood-Benson are used by permission. If you make copies of any song on this website, be sure to report your usage to CCLI.
Submitted by: bassmaster1990

Live Out Loud
Steven Curtis Chapman

Intro (0:01)

G|--6-6-6----------
D|--------6-4-4-4--   Repeat 3x
A|-----------------
E|-----------------

G|------------------6--
D|--------3-6-4-4-6----
A|--4-4-6--------------
E|---------------------

Verse (0:20)

G|------------------------6-----6-----6--
D|----------------------6-----6-----6----
A|--44-44-44-4-3~4-44-8-----8-----8------
E|---------------------------------------

Chorus (0:48)

G|------------------6-----
D|--------3-6-4-4-6-------  Repeat 3x
A|--4-4-6-----------------
E|------------------------

G|--3-5~6-----------------6-----------------------------6--
D|--------------3-6-4-4-6---8-6-----6-6-------3-6-4-4-6----
A|--------4-4-6-----------------4-4-----4-4-6--------------
E|---------------------------------------------------------

Verse (1:13)
Chorus (1:40)
Intro
Bridge (2:30)

G|------------------4-6-4-6--
D|----------4-5-6-8----------
A|--4-6-7-8------------------
E|---------------------------

Modulated Chorus (2:41)

Modulated Intro until end
-----------------------------------
Modulated parts are up 2 frets
~ means slide

If theres any questions or comments just send me a message and i can fix it
God Bless





Comments about this tab

No comments/corrections found. Add your own

Complimentary Christian Ringtones
Dadamobile and CGR have teamed up to bring your favorite Christian artists right to your phone. Sign up today and get 10 complementary ringtones!
Tab Country
Did you know CGR has a sister site w/ country guitar tabs? Well we do! Its called Tab Country. It has a great archive with a lot of country tabs.
Rockin Tabs
Are you looking for a site that has rock guitar tabs? Then Rockintabs.com is the place for you. It is a budding site with many rock guitar tabs. Submit your tab today.
Tab Gallery
Tab Gallery has a compilation of christian, rock, and country tabs all in one place. Come visit us.