Bass Tabs
(THIRD DAY) OR BY ARTIST NAME (JENNIFER KNAPP)
0-9|A|B|C|D|E|F|G|H|I|J|K|L|M|N|O|P|Q|R|S|T|U|V|W|X|Y|Z

Join Us Today!

Don't strum alone...
be a part of the largest online Christian music community. Browse thousands of guitar tabs and chat w/ musicians like yourself.


It's Free!

This tab has not yet been rated for accuracy.Sorry, but you must be logged in to rate this tab.
Click here to log-in, or you can click here to register.
(Registration is free)

All songs owned by Integrity and Brentwood-Benson are used by permission. If you make copies of any song on this website, be sure to report your usage to CCLI.
Submitted by: bigrockj26

Artist: Dave Crowder
Song: Here Is Our King
Album: A Collision

Another great song from Crowder.

Intro/Chorus: G   G/B   C2

Verse: G/B  C2

This little is played underneath the chords by the electric.

e:------------------------------------------------------------------------------
B:---3/5/3/5/8---------3/5/3/5/3------------------------------------------------
G:------------------------------------------------------------------------------
D:------------------------------------------------------------------------------
A:------------------------------------------------------------------------------
E:------------------------------------------------------------------------------

Pre-Chorus: Dsus  C2 

Chorus: G   G/B   C2

I like to play these chords during the chorus on electric.
       G        G/B       C2 
e:------------------------------------------------------------------------------
B:-----8---------8---------8----------------------------------------------------
G:-----7---------7---------5----------------------------------------------------
D:-----5---------x---------5----------------------------------------------------
A:---------------x--------------------------------------------------------------
E:---------------7--------------------------------------------------------------
 
Bridge: I dont know if Crowder actually plays this part but it sounds sweet with
it.

Play these octaves all downstrokes.
e:------------------------------------------------------------------------------
B:------------------------------------------------------------------------------
G:--9-----11-----12-----14-----16-----17----------------------------------------
D:--x-----x------x------x------x------x-----------------------------------------
A:--7-----9------10-----12-----14-----15----------------------------------------
E:------------------------------------------------------------------------------

The order goes like this.

Intro/Chorus    4x
Verse           6x
Pre-Chorus      2x
Chorus          4x
Verse           6x
Pre-Chorus      2x
Chorus          4x
Bridge          2x
Chorus          8x 

Comments about this tab

No comments/corrections found. Add your own

Complimentary Christian Ringtones
Dadamobile and CGR have teamed up to bring your favorite Christian artists right to your phone. Sign up today and get 10 complementary ringtones!
Tab Country
Did you know CGR has a sister site w/ country guitar tabs? Well we do! Its called Tab Country. It has a great archive with a lot of country tabs.
Rockin Tabs
Are you looking for a site that has rock guitar tabs? Then Rockintabs.com is the place for you. It is a budding site with many rock guitar tabs. Submit your tab today.
Tab Gallery
Tab Gallery has a compilation of christian, rock, and country tabs all in one place. Come visit us.