Bass Tabs
(THIRD DAY) OR BY ARTIST NAME (JENNIFER KNAPP)
0-9|A|B|C|D|E|F|G|H|I|J|K|L|M|N|O|P|Q|R|S|T|U|V|W|X|Y|Z

Join Us Today!

Don't strum alone...
be a part of the largest online Christian music community. Browse thousands of guitar tabs and chat w/ musicians like yourself.


It's Free!

This tab has been rated a 5.00 out of 5 for accuracy. (1 vote)Sorry, but you must be logged in to rate this tab.
Click here to log-in, or you can click here to register.
(Registration is free)

All songs owned by Integrity and Brentwood-Benson are used by permission. If you make copies of any song on this website, be sure to report your usage to CCLI.
Submitted by: thechikcalledem

So this is only my and or 3rd tab, please, correct me if you see anything wrong.

Take Me Away
Barlowgirl

Intro
E| -00------------------
A|-------44--00--22-----    4x
D| ---------------------
G| ---------------------


Verse
E| -00--22--44--55--77--00--33--44--55--77---------
A| ------------------------------------------------
D| ------------------------------------------------
G| ------------------------------------------------


Pre-Chorus
E| ------------------------------------
A| -000--222--000--222--333--555-------
D| ------------------------------------
G| ------------------------------------


Chorus
E| -00--44--55--77--00--44--------------
A| ------------------------33--22--------
D| --------------------------------------  2x
G|---------------------------------------

E| -000--222--444--000--222--444------
A| -----------------------------------
D| ----------------------------------- 
G| -----------------------------------

E| -00--44--55--77--00--44---------------
A| ------------------------33--22--------
D| -------------------------------------- 
G|----------------------------------------

After Chorus
E| -00----------------
A| ----44--00--22-----
D| -------------------
G| -------------------


Verse

Chorus 2x


Outro
E| -----------------------
A| -333--555--777---------
D  -----------------------
G| ----------------------



Email me at rockndrummergirl2004@cox.net if you have any questions

Comments about this tab

toothandsolid - 2006-01-18

i dont get it at all?!?!?!?!?!?!?!?


Add a comment/correction

Complimentary Christian Ringtones
Dadamobile and CGR have teamed up to bring your favorite Christian artists right to your phone. Sign up today and get 10 complementary ringtones!
Tab Country
Did you know CGR has a sister site w/ country guitar tabs? Well we do! Its called Tab Country. It has a great archive with a lot of country tabs.
Rockin Tabs
Are you looking for a site that has rock guitar tabs? Then Rockintabs.com is the place for you. It is a budding site with many rock guitar tabs. Submit your tab today.
Tab Gallery
Tab Gallery has a compilation of christian, rock, and country tabs all in one place. Come visit us.