Bass Tabs
(THIRD DAY) OR BY ARTIST NAME (JENNIFER KNAPP)
0-9|A|B|C|D|E|F|G|H|I|J|K|L|M|N|O|P|Q|R|S|T|U|V|W|X|Y|Z

Join Us Today!

Don't strum alone...
be a part of the largest online Christian music community. Browse thousands of guitar tabs and chat w/ musicians like yourself.


It's Free!

This tab has been rated a 5.00 out of 5 for accuracy. (1 vote)Sorry, but you must be logged in to rate this tab.
Click here to log-in, or you can click here to register.
(Registration is free)

All songs owned by Integrity and Brentwood-Benson are used by permission. If you make copies of any song on this website, be sure to report your usage to CCLI.
Submitted by: mtollett

Artist: United Live
SoAng: Look To You
Album: Look To You

There is no Bass for the intro but come in after he sings the Chorus once.

Pre-Verse:
|-----------
|----333----
|-111---3~--
|----------- x2


Verse:
|-333----5-----------333----5------------------------------
|----333--5-------------333--5-----------------------------
|------------3-3-3--------------3-3-3----------------------
|-------------3-3----------------3-3------3333333-66666666- x2


Pre-chorus:
|----------------------------------------------------------------
|-11111111-33333333-11111111----------11111111-55555555-33333333-
|----------------------------33333333----------------------------
|---------------------------------------------------------------- X2


Chorus:
|----10~-12~-8~-------------
|-8~------------8~-6~-5~----
|------------------------6~-
|---------------------------


Pre-Verse:
|-----------
|----333----
|-111---3~--
|----------- x2


Verse:
|-333----5-----------333----5------------------------------
|----333--5-------------333--5-----------------------------
|------------3-3-3--------------3-3-3----------------------
|-------------3-3----------------3-3------3333333-66666666- x2


Pre-Chorus:
|-88888888-10******-88888888-55555555-88888888-12******-10******-
|----------------------------------------------------------------
|----------------------------------------------------------------
|----------------------------------------------------------------

|----------------------------------------------------------------
|-11111111-33333333-11111111----------11111111-55555555-33333333-
|----------------------------33333333----------------------------
|----------------------------------------------------------------


Chorus:
|-------------------------------------------------------------------------
|----------33333333-55555555-11111111-------------------------------------
|-11111111----------------------------11111111-------------------66666666-
|----------------------------------------------44444444-33333333---------- x2


Instrumental:
|---------------------------------------
|----------3333333333----------11111111-
|-11111111------------33333333----------
|--------------------------------------- x2


Pre-Chorus:
|----------------------
|-1~-3~-1~----1~-5~-3~-
|----------3~----------
|----------------------

|----------------------------------------------------------------
|-11111111-33333333-11111111----------11111111-55555555-33333333-
|----------------------------33333333----------------------------
|----------------------------------------------------------------


Chorus:
|----10~-12~-8~-------------
|-8~------------8~-6~-5~----
|------------------------6~-
|---------------------------

|-------------------------------------------------------------------------
|----------33333333-55555555-11111111-------------------------------------
|-11111111----------------------------11111111-------------------66666666-
|----------------------------------------------44444444-33333333---------- x3

|----
|-1~-
|----
|---- At this point the song fades to singing only.

Well there you go, my first post.  Sounds right to me, although there may be 
slight variations and you may have to listen a few times to get the timing.  I 
had to alter it as I play it on a 5 string so it may not be 100%.

~ = Let note ring
* = keep playing this note (substitute for frets in double figures)

Matthew Tollett (m.tollett@ntlworld.com)

Comments about this tab

No comments/corrections found. Add your own

Complimentary Christian Ringtones
Dadamobile and CGR have teamed up to bring your favorite Christian artists right to your phone. Sign up today and get 10 complementary ringtones!
Tab Country
Did you know CGR has a sister site w/ country guitar tabs? Well we do! Its called Tab Country. It has a great archive with a lot of country tabs.
Rockin Tabs
Are you looking for a site that has rock guitar tabs? Then Rockintabs.com is the place for you. It is a budding site with many rock guitar tabs. Submit your tab today.
Tab Gallery
Tab Gallery has a compilation of christian, rock, and country tabs all in one place. Come visit us.