Bass Tabs
(THIRD DAY) OR BY ARTIST NAME (JENNIFER KNAPP)
0-9|A|B|C|D|E|F|G|H|I|J|K|L|M|N|O|P|Q|R|S|T|U|V|W|X|Y|Z

Join Us Today!

Don't strum alone...
be a part of the largest online Christian music community. Browse thousands of guitar tabs and chat w/ musicians like yourself.


It's Free!

This tab has been rated a 4.50 out of 5 for accuracy. (2 votes)Sorry, but you must be logged in to rate this tab.
Click here to log-in, or you can click here to register.
(Registration is free)

All songs owned by Integrity and Brentwood-Benson are used by permission. If you make copies of any song on this website, be sure to report your usage to CCLI.
Submitted by: jamforchrist123

Relient k                                                  
Those Words Are Not Enough                 


  Intro:
G|----------------------------------------------------
D|----------------------------------------------------
A|-------2-4-4-2-2--------4-2-0-0--------2-4-4-2-2-0-- 2x
E|-0-0-0------------0-0-0----------0-0-0--------------
                        
   Verse 1               
G|------------------------------------------------------
D|------------------------------------------------------
A|-4-----------------2-2---444444444--------------------
E|------4----5---0-0----------------444444444-555555555-
  
  Still
  Verse 1    Pre Chorus  
G|---------|---------------------------------------------
D|---------|---------------------------------------------
A|-----2-2-|--4--2--0--2--4--2--0--2--4--2--0--2-2-2-2-2-
E|-0-0-----|---------------------------------------------

  Chorus  
G|----------------------------
D|---------------------------- To Play One Full Chorus,
A|---------------------------- Play This Two Times.
E|-000000000000-4444444-555555 


...............
.Play Intro 1x.
...............


  Verse 2 
G|----------------------------------------
D|----------------------------------------
A|-444444444--------------------------2-2- 2x
E|-----------444444444-5555555555-0-0-----


   Bridge
G|---------
D|---------
A|-------2- 2x
E|-4-5-0---


................
.Play Chorus 2x.
................

.................
.Play Pre Chorus.
.................

.....................
.Play Chorus 4 Times.
.....................


To Finish, Play Half Of One
Full Chorus, Then This When
Its Only The Bass Playing.
G|-------------------------------
D|-------------------------------
A|-------------------------------
E|-0000000000000-4444444-555555-7

Comments about this tab

No comments/corrections found. Add your own

Complimentary Christian Ringtones
Dadamobile and CGR have teamed up to bring your favorite Christian artists right to your phone. Sign up today and get 10 complementary ringtones!
Tab Country
Did you know CGR has a sister site w/ country guitar tabs? Well we do! Its called Tab Country. It has a great archive with a lot of country tabs.
Rockin Tabs
Are you looking for a site that has rock guitar tabs? Then Rockintabs.com is the place for you. It is a budding site with many rock guitar tabs. Submit your tab today.
Tab Gallery
Tab Gallery has a compilation of christian, rock, and country tabs all in one place. Come visit us.