Bass Tabs
(THIRD DAY) OR BY ARTIST NAME (JENNIFER KNAPP)
0-9|A|B|C|D|E|F|G|H|I|J|K|L|M|N|O|P|Q|R|S|T|U|V|W|X|Y|Z

Join Us Today!

Don't strum alone...
be a part of the largest online Christian music community. Browse thousands of guitar tabs and chat w/ musicians like yourself.


It's Free!

This tab has been rated a 3.33 out of 5 for accuracy. (3 votes)Sorry, but you must be logged in to rate this tab.
Click here to log-in, or you can click here to register.
(Registration is free)

All songs owned by Integrity and Brentwood-Benson are used by permission. If you make copies of any song on this website, be sure to report your usage to CCLI.
Submitted by: Progniss

Title: Salvation Is Here
Artist: United

I have seen all the "Salvation Is Here" tabs and none of them are really accurate.
So here it goes, the right way to play this song. This was my first time writing
out a tab, but it's pretty easy...just takes time I guess. Enjoy :)

Slide = /
h = hammer
p = pull
* = play 8 times
~ = let ring

All parts of the song are played in Double Time with the exception of the break
to the chorus and the chorus its self.

Intro:
G|----------16----16----16------------------------
D|------------------------------------------------  Do this x2
A|-14*/9--14*-1414--1414--14----------------------
E|------------------------------------------------

Verse (Right After Intro):
G|---------------
D|---------------  Do this the first time after the intro
A|-14*-11*-9*-7*-
E|---------------

Verse Normal:
G|---------------
D|-9*------------  Switch to this because it's easier to play then moving up
A|---11*-9*-7*---  the neck on one string in a large gap (sounds smoother). 
E|---------------  On second to last time of the verse being playede he switches 
                   to a lower octave.

So The E (or 7) would be played on an open E to switch the the next lower octave 
then play this.
G|------------------
D|------------------ 
A|-2*---------------
E|----4*-2*-0*------

End of verse into chorus play:
G|-----------------------
D|-----------------------  
A|-4-4-4-444--7-7-7-777--
E|-----------------------

Chorus and Music Break in Verse:
G|--------------------------------------------------------------
D|--------------------------------------------------------------  
A|-----------------7-7-7-7-7---7---9-9-9-9-9---9---7-7-7-7-7h9--
E|-7-7-7-7-7h9p7h9-----------9---9-----------9---9-------------9
At the end of the chorus he doesn't do the hammer on's but keeps playing the
(7)E

Bridge:
G|-------------------------------------------------
D|-----------------9-9-9-11-11-11-11-9-9-------9--- 
A|--11-11-11-11-11-----------------------11-11---11
E|-------------------------------------------------

G|-----------------------------------------------
D|-----------------------------11-11-11-9-9------
A|--------11-11-11--11-9-9-9-9--------------9-9-9
E|--7-7-7----------------------------------------

G|-----------------------------------------------
D|-------------------9-9-9----------9-9---------- 
A|-7-7-7-11-11-11-11-------11-11-11-----11-11----
E|-----------------------------------------------

G|----------------8-8-8--------------------------
D|-------11-11-11-------11-11-11-9-9-------------  
A|-9-9-9-----------------------------9-9---------
E|-----------------------------------------------

Outro Is same as the Intro But I'll put it anyways
G|----------16----16----16------------------------
D|------------------------------------------------  Do this x2 and end on the 14
A|-14*/9--14*-1414--1414--14~----------------------  and let it ring for a bit.
E|------------------------------------------------

Song order:
Intro
Verse (all parts)
Chorus
Intro
Verse (all parts)
Chorus
Bridge
Chorus
Outro

I hope I didn't forget anything...

There you go the actual correct way to play this song. 
It took me a while to figure it out but now there is 
a correct way to play posted. :)

Hope you like it.



Comments about this tab

No comments/corrections found. Add your own

Complimentary Christian Ringtones
Dadamobile and CGR have teamed up to bring your favorite Christian artists right to your phone. Sign up today and get 10 complementary ringtones!
Tab Country
Did you know CGR has a sister site w/ country guitar tabs? Well we do! Its called Tab Country. It has a great archive with a lot of country tabs.
Rockin Tabs
Are you looking for a site that has rock guitar tabs? Then Rockintabs.com is the place for you. It is a budding site with many rock guitar tabs. Submit your tab today.
Tab Gallery
Tab Gallery has a compilation of christian, rock, and country tabs all in one place. Come visit us.