Bass Tabs
(THIRD DAY) OR BY ARTIST NAME (JENNIFER KNAPP)
0-9|A|B|C|D|E|F|G|H|I|J|K|L|M|N|O|P|Q|R|S|T|U|V|W|X|Y|Z

Join Us Today!

Don't strum alone...
be a part of the largest online Christian music community. Browse thousands of guitar tabs and chat w/ musicians like yourself.


It's Free!

This tab has not yet been rated for accuracy.Sorry, but you must be logged in to rate this tab.
Click here to log-in, or you can click here to register.
(Registration is free)

All songs owned by Integrity and Brentwood-Benson are used by permission. If you make copies of any song on this website, be sure to report your usage to CCLI.
Submitted by: IbanezBass443

Kutless
“Better For You”

Tabbed By J. Draggoo

Alright, This song has a lot to do with the timing of how it’s played.
It is in C# 1 ˝ step Lower. This is a great tune that shows that the 
bassist doesn’t have to follow the guitars to make a good rock song.
Enjoy s:-)

Any Feedback or questions: jmsbondxc@hotmail.com

~= Sustain
h= Hammer On
^= Slide

Intro/Chorus:
F# ----------------------- 1x     2nd ---------------------------1x
C# -----------------------            ----------------5555^121212
G# ---0h2h3-3333^5--------            ---0h2h3-3333h5-----------
C# -22-------------5555-0-000554      22------------------------
    D# G#A#B B  C#  F#   C#  F#F      D# G#A#B  B   C#  F#   C#


V1: NO BASS. I’m pretty sure it’s a Synth


V2: When He begins to sing
/----^97------------^99-------- 1x  /----^97------------^99-------- 1x
/--------55~-5h677~----77~-9-7-     /--------55~-5h677~----77~-7-9--
/77~---------------------------     /77~---------------------------
/------------------------------     /------------------------------
  D# D#C# F# F#GG#  D# G# A# G#       D# D#C# F# F#GG#  D# G# G# A#
  

Pre:
/-----5------------^99------- 1x
/-------55~-5h677~----77~----
/-33~--------------------7^-
/---------------------------
  B   B F#  F#GG#  D# G# D#




Bridge:

/------------------- 2x  2nd /------------- 2x
/-------------------        /-------------
/------0000-3333----        /----0~-3~----
/-2222-----------3333       /-2~-------3~-
  D#    G#   B    F#          D# G# B  G#

Comments about this tab

No comments/corrections found. Add your own

Complimentary Christian Ringtones
Dadamobile and CGR have teamed up to bring your favorite Christian artists right to your phone. Sign up today and get 10 complementary ringtones!
Tab Country
Did you know CGR has a sister site w/ country guitar tabs? Well we do! Its called Tab Country. It has a great archive with a lot of country tabs.
Rockin Tabs
Are you looking for a site that has rock guitar tabs? Then Rockintabs.com is the place for you. It is a budding site with many rock guitar tabs. Submit your tab today.
Tab Gallery
Tab Gallery has a compilation of christian, rock, and country tabs all in one place. Come visit us.