Bass Tabs
(THIRD DAY) OR BY ARTIST NAME (JENNIFER KNAPP)
0-9|A|B|C|D|E|F|G|H|I|J|K|L|M|N|O|P|Q|R|S|T|U|V|W|X|Y|Z

Join Us Today!

Don't strum alone...
be a part of the largest online Christian music community. Browse thousands of guitar tabs and chat w/ musicians like yourself.


It's Free!

This tab has been rated a 4.25 out of 5 for accuracy. (4 votes)Sorry, but you must be logged in to rate this tab.
Click here to log-in, or you can click here to register.
(Registration is free)

All songs owned by Integrity and Brentwood-Benson are used by permission. If you make copies of any song on this website, be sure to report your usage to CCLI.
Submitted by: beav2k2

Artist - Thousand Foot Krutch
Song - Absolute
CD - The Art of Breaking
Tabbed by - Beav


This is the first song off 'The Art of Breaking'.  It's fairly easy, and uber 
catchy.  It's tuned in Dropped D.



Intro - No bass

1st Verse - 

G|--------5---------------------5--|
D|-----7-----------3---------7-----|
A|--5-----------1-------3-5--------|
D|---------------------------------|


Prechorus - 

G|------------------------------|------------------------------|
D|------------------------------|------------------------------|
A|----------5b------------------|----------5b---5b-------------|
D|--0--0-0-----0--0-0--7--3--5--|--0--0-0-----0----0--3--5--0--|


Chorus - 

G|--------------------------------|----------------------------|
D|--------------------------------|----------------------------|
A|-------------------------5---5--|--------------3-3--0h5------|
D|--8-8--0h3-3--0h5-5--0-0---0----|--8-8--0h3-3-----------0h7--|

G|---------------------------------|
D|---------------------------------|
A|--------------3-3-3--------------|
D|--8-8--0h3-3---------7--3--5--0--|


Verse 2 - (with a little ad lib)

G|--------5---------------------5--|
D|-----7-----------3---------7-----|
A|--5-----------1-------3-5--------|
D|---------------------------------|


Prechorus - 

G|------------------------------|------------------------------|
D|------------------------------|------------------------------|
A|----------5b------------------|----------5b---5b-------------|
D|--0--0-0-----0--0-0--7--3--5--|--0--0-0-----0----0--3--5--0--|


Chorus - 

G|--------------------------------|----------------------------|
D|--------------------------------|----------------------------|
A|-------------------------5---5--|--------------3-3--0h5------|
D|--8-8--0h3-3--0h5-5--0-0---0----|--8-8--0h3-3-----------0h7--|

G|---------------------------------|
D|---------------------------------|
A|--------------3-3-3--------------|
D|--8-8--0h3-3---------7--3--5--0--|


Bridge

G|-----------------|
D|-----------------|
A|--5--3--2--1--0--|
D|-----------------|


That's pretty much it.  Feel free to tell me how bad it sucks.

Comments about this tab

feyser - 2005-06-16

I think the two C#m chords in the bridge should be the "A" barre chord 577655

Also, I think there should be an A x02220 in between the C#m and the B after the interlude. Good tab, thanks!


Number1RKfanAMT - 2005-07-19

I agree with the comment above that the chord should be the A barre chord instead of the C# minor. I also have a few spelling corrections to make...good tab otherwise!

See's should be sees. The word "see" does not own anything.
Your're should be you're. That means your are.
Let's should be lets. The word "let" doesn't own anything.
The word "receice" should be receive.

Like I said....great tab otherwise! Gotta watch out for those commas! :)


JesusFreak4Real - 2006-03-23

i love this song thank you so much for doing this song


I Jam For God - 2006-11-09

Thank you for tabbin this song. I am a phil joel fan and this song rocks!


Add a comment/correction

Complimentary Christian Ringtones
Dadamobile and CGR have teamed up to bring your favorite Christian artists right to your phone. Sign up today and get 10 complementary ringtones!
Tab Country
Did you know CGR has a sister site w/ country guitar tabs? Well we do! Its called Tab Country. It has a great archive with a lot of country tabs.
Rockin Tabs
Are you looking for a site that has rock guitar tabs? Then Rockintabs.com is the place for you. It is a budding site with many rock guitar tabs. Submit your tab today.
Tab Gallery
Tab Gallery has a compilation of christian, rock, and country tabs all in one place. Come visit us.