Bass Tabs
(THIRD DAY) OR BY ARTIST NAME (JENNIFER KNAPP)
0-9|A|B|C|D|E|F|G|H|I|J|K|L|M|N|O|P|Q|R|S|T|U|V|W|X|Y|Z

Join Us Today!

Don't strum alone...
be a part of the largest online Christian music community. Browse thousands of guitar tabs and chat w/ musicians like yourself.


It's Free!

Grammatrain - Pain

This tab has not yet been rated for accuracy.Sorry, but you must be logged in to rate this tab.
Click here to log-in, or you can click here to register.
(Registration is free)

All songs owned by Integrity and Brentwood-Benson are used by permission. If you make copies of any song on this website, be sure to report your usage to CCLI.
pain
grammatrain
flying
tabbed by jared gardner     punkrawkfreak@hotmail.com

**********
* drop-D *
**********

verse
G|-----------------------------|
D|-----------------------------|
A|-----------------------------|
E|-0--0-0-3-0--3-5--3--0-0-3-0-|

chorus
G|--------------------------------------------|
D|--------------------------------------------|
A|------------3-5--5-5-5-6-5-5-5-6-5-5-5-5----|
E|-0--0-0-3-5-------------------------------5-|-3-|

after chorus
G|---------------------------------------------------------------------|
D|---------------------------------------------------------------------|
A|---------------------------------------------------------5-3---------|
E|-verse-1x--0-0-0-3--0-5--3--0-0-3-5--verse-1x--0-0-0-3-0---5-0-3-5-3-|

bridge
G|--------------------------------------------------------------|
D|--------------------------------------------------------------|
A|--------------------------------------------------------------|
E|-0-0-0-3-0--0-3-0-0-3-0-3-5--0-0-0-3-0--0-3-0-0-3-0-3-5-|-0h5-|

end
G|----------------------------------------|
D|----------------------------------------|
A|----------------------------------------|
E|-0-3-5-5-5-5--0-3-5--0-3-5--5-5-5-0-3-5-|

i think that's all, but i'm pretty sure i got most of it wrong . . .
that's basically it, tho, so just play it that way, and if u find 
anything wrong, correct it or something . . . oh yeah, i think dalton
uses some kind of overdrive pedal, so that's the kinda distortion 
you're lookin for

Comments about this tab

Tim1 - 2005-03-23

The song seems right, but the AM sounds some what out of place.
Thanks


BlackAttack1287 - 2005-04-04

I'm a newb, but that intro doesn't sound right to me. I play it:

D -0-0-0-0------------------
A --------4-0---0-0-0-0-----
E ----------------------4-0-


katie K. - 2005-04-11

HEY,
HOW DO YOU PLAY: C/B, G/F#, G/B?


BlackAttack1287 - 2005-04-11

Hey, sorry, I just realized my intro up above doesn't work on capo 2, if indeed that's how the song is played.


quiescence - 2005-04-15

Katie K.
Slash chords (C/B, G/F#, G/B) are a voicing of a chord with the second letter the name of the note in the bass.
C/B - x22010
G/F#- 220003
G/B - x20003

Or let the bass voice the bass note if you are playing with one.


katie k - 2005-04-16

thanks!! :)


josh777 - 2006-03-27

hey black attack the notes are right but to be a good guitarist u need to learn how to make it easy on your self play the intro like this
A-----5-5-5-5-4-0
E-----5-5-5-5-4-0
play it like that its much easier next time you tab get on my guitar playing level!!!!!!!!!in christ talk to u l8er


wjr1991 - 2008-02-10

The thing is that the intro is played similar to a power chord, although with regular shapes... so I play the top two notes of C, C/B, G, and D/F# (which sound closer, in my opinion...) so it looks like

(Capo on 2)
D|2-2-2-2-2-x-x-x-x-x-x
A|3-3-3-3-2-2-2-2-2-0-0
E|x-x-x-x-x-3-3-3-3-1-1

Which is pretty easy once you get it down...


Add a comment/correction

Complimentary Christian Ringtones
Dadamobile and CGR have teamed up to bring your favorite Christian artists right to your phone. Sign up today and get 10 complementary ringtones!
Tab Country
Did you know CGR has a sister site w/ country guitar tabs? Well we do! Its called Tab Country. It has a great archive with a lot of country tabs.
Rockin Tabs
Are you looking for a site that has rock guitar tabs? Then Rockintabs.com is the place for you. It is a budding site with many rock guitar tabs. Submit your tab today.
Tab Gallery
Tab Gallery has a compilation of christian, rock, and country tabs all in one place. Come visit us.