Bass Tabs
(THIRD DAY) OR BY ARTIST NAME (JENNIFER KNAPP)
0-9|A|B|C|D|E|F|G|H|I|J|K|L|M|N|O|P|Q|R|S|T|U|V|W|X|Y|Z

Join Us Today!

Don't strum alone...
be a part of the largest online Christian music community. Browse thousands of guitar tabs and chat w/ musicians like yourself.


It's Free!

This tab has been rated a 5.00 out of 5 for accuracy. (3 votes)Sorry, but you must be logged in to rate this tab.
Click here to log-in, or you can click here to register.
(Registration is free)

All songs owned by Integrity and Brentwood-Benson are used by permission. If you make copies of any song on this website, be sure to report your usage to CCLI.
Submitted by: puma

Artist- Hillsongs United
Album- Look To You
Song- Salvation is Here

Alot of my friends asked me to teach them this song but I was to lazy :) so 
i decided to put it up. o yeah, this is my first tab too... so i might be 
alittle sketchy.

tab by- Beau Lim from CCS (Community Church of Seattle)
you can send me an email about this anytime at- caboosen1@gmail.com

Hillsongs United is a great band to listen to and just meditate on the words to.
They are just great.

tab by- Beau Lim from CCS (Community Church of Seattle)
you can send me an email about this anytime at- caboosen1@gmail.com

intro x2 
G/--------------------14-------14---------------
D/--7/14x8/5-----14x7----14-14----14-14---------                        
A/----------------------------------------------
E/----------------------------------------------

Verse you can figure out the beat
G/------------------------------------------------------------
D/--9-6-4-2----9-6-4-2----------------------------------------
A/-------------------------14-11-9-7----4-7--------------
E/------------------------------------------------------------


Instrumental x2 you can figure out the beat 
G/------------------------------------------------------------
D/----------------------------------------------------------
A/--2-----------------------------------------------------------
E/------0----2----4----------------------------------------------

Play verse

Chorus figure out the beat
G/---------------------------------------------------------------
D/---------------------------------------------------------------
A/--2------------------------------------------------------------
E/------0----2----4----------------------------------------------

G/---------------------------------------------------------------
D/---------------------------------------------------------------
A/--2---------4----7---------------------------------------------
E/------0--------------------------------------------------------
-
Play Intro once

Play Verse
 
Play Chorus x2

Bass Solo your supposed to play it with a digital delay pedal but i guess 
you can do it by hand
x3
G/--13-13-13-16-16-16-18-18-18-16-16-13-13-16-16---------------
D/-------------------------------------------------------------
A/-------------------------------------------------------------
E/-------------------------------------------------------------

G/-------13-13-13-11-11-11-18-18-18-16-16-16-------------------
D/-9-9-9-------------------------------------16-16-------------
A/-------------------------------------------------------------
E/-------------------------------------------------------------

G/-----------13-13-13-16-16-16-13-13-16-16---------------------
D/--14-14-14---------------------------------------------------
A/-------------------------------------------------------------
E/-------------------------------------------------------------

G/-----------13-13-13-20-20-20-18-18-18-16-16-16---------------
D/--11-11-11-------------------------------------16-16-16------
A/-------------------------------------------------------------
E/-------------------------------------------------------------

x2
G/-------------------------------------------------------------
D/------------9-9-9-11-11-11-9-9-9-------9-9-------------------
A/---11-11-11----------------------11-11-----------------------
E/-------------------------------------------------------------

G/-------------------------------------------------------------
D/-----------------------11-11-11-9-9-9------------------------
A/--------11-11-11-9-9-9----------------9-9-9------------------
E/--7-7-7------------------------------------------------------

G/-------------------------------------------------------------
D/--------6-6-6-9-9-9-6-6-9-9-6-6------------------------------
A/--7-7-7------------------------------------------------------
E/-------------------------------------------------------------

G/----------------8-8-8-6-6-6-4-4-4----------------------------
D/----------6-6-6-------------------4-4------------------------
A/----4-4-4----------------------------------------------------
E/-------------------------------------------------------------

Chorus /diffrent
G/----------------------------------------------------------
D/----------------------------------------------------------
A/--2-------------------------------------------------------
E/------0----2----4-----------------------------------------

G/------------------------------------------------------------------
D/------------------------------------------------------------------
A/--2---------4----7---------------2---------------4--------7-------
E/------0------------------------------------------------------

Chorus you can figure out the rest
G/---------------------------------------------------------------
D/---------------------------------------------------------------
A/--2------------------------------------------------------------
E/------0----2----4----------------------------------------------

G/---------------------------------------------------------------
D/---------------------------------------------------------------
A/--2---------4----7---------------------------------------------
E/------0--------------------------------------------------------

Intro


wow, that took me a while haha, neways, im pretty sure this tab sounds good 
let me know what you think of my first tab :)thanks for checking it out

Because He Lives

Beau->out











Comments about this tab

No comments/corrections found. Add your own

Complimentary Christian Ringtones
Dadamobile and CGR have teamed up to bring your favorite Christian artists right to your phone. Sign up today and get 10 complementary ringtones!
Tab Country
Did you know CGR has a sister site w/ country guitar tabs? Well we do! Its called Tab Country. It has a great archive with a lot of country tabs.
Rockin Tabs
Are you looking for a site that has rock guitar tabs? Then Rockintabs.com is the place for you. It is a budding site with many rock guitar tabs. Submit your tab today.
Tab Gallery
Tab Gallery has a compilation of christian, rock, and country tabs all in one place. Come visit us.