Bass Tabs
(THIRD DAY) OR BY ARTIST NAME (JENNIFER KNAPP)
0-9|A|B|C|D|E|F|G|H|I|J|K|L|M|N|O|P|Q|R|S|T|U|V|W|X|Y|Z

Join Us Today!

Don't strum alone...
be a part of the largest online Christian music community. Browse thousands of guitar tabs and chat w/ musicians like yourself.


It's Free!

This tab has been rated a 4.00 out of 5 for accuracy. (1 vote)Sorry, but you must be logged in to rate this tab.
Click here to log-in, or you can click here to register.
(Registration is free)

All songs owned by Integrity and Brentwood-Benson are used by permission. If you make copies of any song on this website, be sure to report your usage to CCLI.
Submitted by: CRloveSkillet13

   Artist:Skillet
   Song:Cycle Down
   Tabbed by:Chris
 
This is my first bass tab ever! I don't even play bass! I am using my 
guitar to do this tab. I saw that there wasn't a tab for Cycle Down, so I
thought I'd give it a shot. Also, I know John uses a five string and I 
don't know what tunings he uses, but I'm doing it for a 4-string bass,
ropped down a half step.

                   Intro
   Gb---------------------------------------------------------------------
   Db---------------------------------------------------------------------
   Ab----------------------------------------3----------------------------x4
   Db--0--0-0-0--2--0-0-0--3--0-0-0--3--0--2------------------------------
 
             Then let open Db low string ring out right after intro.
        
                      Verse 1 (No bass on verse 1)
                   
                    Pre-chorus   
                 Gb---------------------
                 Db---------------------
                 Ab-----------3---------x4
                 Db--0--5--3------------      
 
                        Chorus 1
  Gb-------------------------------------------------------------------
  Db-------------------------------------------------------------------
  Ab--------------------------1-1-1-1--------------------------3-3-3-3-x2
  Db--0-0-0-0-3-3-3-3-5-5-5-5----------0-0-0-0-3-3-3-3-5-5-5-5---------
           
                         Intro x2

                      Verse 2
                Gb--------------
                Db--------------
                Ab-----------3--x4
                Db--0--5--3-----
  
                        Pre-Chorus
  
                       Chorus 2

                     Bridge 1 (The part where he keeps saying, "Down"!)
  Gb-----------------------------------------------------------------------
  Db-----------------------------------------------------------------------
  Ab-----------------------------1-1-1-1----------------------------3-3-3-3x2 
  Db--0-0-0-0--3-3-3-3--5-5-5-5-----------0-0-0-0--3-3-3-3--5-5-5-5--------                 
  

                         Bridge2
  Gb--------------------------------------------------
  Db--------------------------------------------------
  Ab--1--1-1--1--1-1----------------------------------x2
  Db-------------------0--0-0--0--0-0-----------------

                 Chorus 3(Just guitar for the first part, then play the second
              part once.)
 
               Bridge 1 

                Intro played 4 times for outro


That's it! Please let me know how I did. Listen to the CD for the timing. Any
questions email me at BballChris0039@aol.com. Please don't rate my tab based on 
the tuning. I'm not a bass player. I just used my guitar knowledge.I hope this 
tab helps you. Please tell me if it does.  God Bless!
                                                       

Comments about this tab

No comments/corrections found. Add your own

Complimentary Christian Ringtones
Dadamobile and CGR have teamed up to bring your favorite Christian artists right to your phone. Sign up today and get 10 complementary ringtones!
Tab Country
Did you know CGR has a sister site w/ country guitar tabs? Well we do! Its called Tab Country. It has a great archive with a lot of country tabs.
Rockin Tabs
Are you looking for a site that has rock guitar tabs? Then Rockintabs.com is the place for you. It is a budding site with many rock guitar tabs. Submit your tab today.
Tab Gallery
Tab Gallery has a compilation of christian, rock, and country tabs all in one place. Come visit us.