Bass Tabs
(THIRD DAY) OR BY ARTIST NAME (JENNIFER KNAPP)
0-9|A|B|C|D|E|F|G|H|I|J|K|L|M|N|O|P|Q|R|S|T|U|V|W|X|Y|Z

Join Us Today!

Don't strum alone...
be a part of the largest online Christian music community. Browse thousands of guitar tabs and chat w/ musicians like yourself.


It's Free!

This tab has not yet been rated for accuracy.Sorry, but you must be logged in to rate this tab.
Click here to log-in, or you can click here to register.
(Registration is free)

All songs owned by Integrity and Brentwood-Benson are used by permission. If you make copies of any song on this website, be sure to report your usage to CCLI.
Submitted by: Toffeebean

Title: Salvation Is Here
Artist: United Live
Album: Look To You


I tabbed this song the first day the album came out but i havent had the chance
to post it in these forums coz i didn't have an account. Im sure this tab is 99%
correct and im confident of that because if you look closely at the new God He 
Reigns DVD the bass player plays it that way. Secondly i got back from the
Hillsong Strength conference and noticed they all played it the way i had tabbed
it originally. Hope it helps, enjoy :)



Time - 2:23                       

G|-------------16-16-16--18-18-18--16-16---------16-----------    
D|---18-18-18-----------------------------18-18------18-------    1st Bar   
A|------------------------------------------------------------    
E|------------------------------------------------------------    

G|---------------------------------18-18--16-16---------------          
D|-------------18-18-18--16-16-16----------------18-18--------    2nd Bar    
A|---14-14-14-------------------------------------------------    
E|------------------------------------------------------------      

G|-----------------------16-16-16------------16-16------------    
D|---14-14-14--18-18-18------------18-18-18---------18-18-----    3rd Bar    
A|------------------------------------------------------------    
E|------------------------------------------------------------    

G|-----------------------20-20-20--18-18-18--16-16------------    
D|-------------18-18-18-----------------------------16--------    4th Bar     
A|---16-16-16-------------------------------------------------    
E|------------------------------------------------------------    

                                                                              

The song then drops an octave to the G# on the A-string, or fret 11. 

Time - 2:58

G|------------------------------------------------------------
D|-------------9-9-9--11-11-11--9-9---------9-----------------   1st Bar
A|---11-11-11------------------------11-11-----11-------------
E|------------------------------------------------------------
                                                              
G|------------------------------------------------------------
D|---------------------------11-11--9-9-----------------------   2nd Bar
A|----------11-11-11--9-9-9--------------11-11----------------
E|---7-7-7----------------------------------------------------
                                                              
G|------------------------------------------------------------
D|--------------------9-9-9------------9-9--------------------   3rd Bar
A|---7-7-7--11-11-11---------11-11-11-------11-11-------------
E|------------------------------------------------------------
                                                              
G|------------------------------------------------------------
D|--------------------13-13-13--11-11-11--9-9-----------------   4th Bar
A|----------11-11-11---------------------------9--------------
E|---9-9-9----------------------------------------------------


And there it is, the solo to Salvation Is Here in tablature.


Comments about this tab

No comments/corrections found. Add your own

Complimentary Christian Ringtones
Dadamobile and CGR have teamed up to bring your favorite Christian artists right to your phone. Sign up today and get 10 complementary ringtones!
Tab Country
Did you know CGR has a sister site w/ country guitar tabs? Well we do! Its called Tab Country. It has a great archive with a lot of country tabs.
Rockin Tabs
Are you looking for a site that has rock guitar tabs? Then Rockintabs.com is the place for you. It is a budding site with many rock guitar tabs. Submit your tab today.
Tab Gallery
Tab Gallery has a compilation of christian, rock, and country tabs all in one place. Come visit us.