Bass Tabs
(THIRD DAY) OR BY ARTIST NAME (JENNIFER KNAPP)
0-9|A|B|C|D|E|F|G|H|I|J|K|L|M|N|O|P|Q|R|S|T|U|V|W|X|Y|Z

Join Us Today!

Don't strum alone...
be a part of the largest online Christian music community. Browse thousands of guitar tabs and chat w/ musicians like yourself.


It's Free!

This tab has been rated a 5.00 out of 5 for accuracy. (2 votes)Sorry, but you must be logged in to rate this tab.
Click here to log-in, or you can click here to register.
(Registration is free)

All songs owned by Integrity and Brentwood-Benson are used by permission. If you make copies of any song on this website, be sure to report your usage to CCLI.
Submitted by: jesusaves3721

Drop D Tuning

\= Slide

Intro:
A-4-4444-44-444\6-----------------1-1111-11-1111-1-----------------
D-----------------4-4444-44-4444-4----------------4444444433331111

Verse:
A---------------------------------
D-88-888-888-888-866-666-666-666-6   4 Times

Chorus:
A-4-4444-44-444\6-------------------------------------------------
D-----------------4-4444-44-4444-4-8-8888-88-8888-4444444433331111
After The Chorus (And I know that I can fly...)

A-4-----------------1---------
D----------4-----------------4

The Intro 1 Time
The Verse 4 Times 
The Chorus 1 Time

Post-Chorus:
A-4-----------------1---------
D----------4-----------------4

Before the bridge:
A-4-4-444-4444
D--------------4-4-444-4444

There is pause where the guitar plays

Breakdown:
A--------------------------------------------
D-888-888-666-666-888\14-888\14-666\12-666\12

Bridge:
A-----------------------------------------------------------------
D-8888888888888888666666666666666644444444444444441111333344446666    2 Times

Play the chorus part 2 Times (Play it through "and I know....)

Intro Part again

End with two riff of the verse:
A---------------------------------------------------------------
D-88-888-888-888-866-666-666-666-688-888-888-888-866-666-666-666

So there it is, if you think it is something different in any part comment on 
it so that We can all play it better. Its a great song, enjoy!

Comments about this tab

No comments/corrections found. Add your own

Complimentary Christian Ringtones
Dadamobile and CGR have teamed up to bring your favorite Christian artists right to your phone. Sign up today and get 10 complementary ringtones!
Tab Country
Did you know CGR has a sister site w/ country guitar tabs? Well we do! Its called Tab Country. It has a great archive with a lot of country tabs.
Rockin Tabs
Are you looking for a site that has rock guitar tabs? Then Rockintabs.com is the place for you. It is a budding site with many rock guitar tabs. Submit your tab today.
Tab Gallery
Tab Gallery has a compilation of christian, rock, and country tabs all in one place. Come visit us.