Bass Tabs
(THIRD DAY) OR BY ARTIST NAME (JENNIFER KNAPP)
0-9|A|B|C|D|E|F|G|H|I|J|K|L|M|N|O|P|Q|R|S|T|U|V|W|X|Y|Z

Join Us Today!

Don't strum alone...
be a part of the largest online Christian music community. Browse thousands of guitar tabs and chat w/ musicians like yourself.


It's Free!

This tab has been rated a 4.00 out of 5 for accuracy. (1 vote)Sorry, but you must be logged in to rate this tab.
Click here to log-in, or you can click here to register.
(Registration is free)

All songs owned by Integrity and Brentwood-Benson are used by permission. If you make copies of any song on this website, be sure to report your usage to CCLI.
Submitted by: IbanezBass443

Kutless
“Your Touch”

Tabbed By J. Draggoo

Ok, I laid it out as best I could. A lot is the timing and feel of the song. 
I put the notes under each fret number because I know you all have different 
ways of playing, but this is pretty much what is on the CD. I did not 
however,put the notes on the solo because I’m puzzled to see how 
to get the same tones on a different part of the neck. But hey, experiment.  

ENJOY! s:-)

Any Feedback or questions: jmsbondxc@hotmail.com

~= Sustain
*= Muted
^= Slide

Intro/V1:
G ------------ 3x
D ------------
A ---1--3--1--
D -5----------
   G A# C  A#

Pre: 
1st/---------------------- 1x 2nd---------------------1x               
   /------------7-5-------       ---------------------            
   /----------------------       ---------------------            
   /1-1-3-3-5-5~~--------5^      1-1-3-3-10-10-10101010 
    D#   F   G  A G              D#   F   C  C    C


Chorus:
/-----------------------------                  
/-----------------------------
/----------------------------  
/5-5-5^8-8-8^3-3-3-3-3-**1---
  G       A#      F         D#

Interlude:
/---------------- 1x
/----------------
/-----1-1-1^3-3-3^1-1
/-5-5------------
  G A#     C   A#   

V2:
/------------------------------2x
/-----------------12-10--------
/-------------------------8-10^-
/-5-5-5^8-8-8^10--------8------
  G     A#     C   D  C A# F G


Bridge:

/---------------- 2x
/----------------
/---------------
/-5~--8~--3~--------
  G   A#  F   

Bass Solo/Build Up:

/---------------10---------12h10---------------10------12h14  2x
/-0-12-12-10h12----0-12-12-------0-12-12-10h12----0-12------
/-----------------------------------------------------------
/-----------------------------------------------------------

Play The Same Pattern As Guitar
/--------------------------------------------- 1x
/---------------------------------------------
/3--------------------------------------------
/--5-3h5-0~-0~-0~-0~--------------------------------
 C G F G D

Heavy Jump Part :-P
/--------------------------------------------- 15x
/---------------------------------------------
/---------------------------------------------
/0-0-0-3h5-0-0-0-0-5h3------------------------
   D   F G   D     G F

Comments about this tab

No comments/corrections found. Add your own

Complimentary Christian Ringtones
Dadamobile and CGR have teamed up to bring your favorite Christian artists right to your phone. Sign up today and get 10 complementary ringtones!
Tab Country
Did you know CGR has a sister site w/ country guitar tabs? Well we do! Its called Tab Country. It has a great archive with a lot of country tabs.
Rockin Tabs
Are you looking for a site that has rock guitar tabs? Then Rockintabs.com is the place for you. It is a budding site with many rock guitar tabs. Submit your tab today.
Tab Gallery
Tab Gallery has a compilation of christian, rock, and country tabs all in one place. Come visit us.