Bass Tabs
(THIRD DAY) OR BY ARTIST NAME (JENNIFER KNAPP)
0-9|A|B|C|D|E|F|G|H|I|J|K|L|M|N|O|P|Q|R|S|T|U|V|W|X|Y|Z

Join Us Today!

Don't strum alone...
be a part of the largest online Christian music community. Browse thousands of guitar tabs and chat w/ musicians like yourself.


It's Free!

Grammatrain - Execution

This tab has not yet been rated for accuracy.Sorry, but you must be logged in to rate this tab.
Click here to log-in, or you can click here to register.
(Registration is free)

All songs owned by Integrity and Brentwood-Benson are used by permission. If you make copies of any song on this website, be sure to report your usage to CCLI.
Song: Execution
Artist: Grammatrain
Album: Lonely House
Copyright: Up in the Mix Music
tabbed by: Daniel Adkins jadkins@gardner-webb.edu

part A
E-0-0-3-5-3-0-3

part B
E-3-3-0-0-0-0

part C
E-5-6-7   

Song order
A x8
B x8
C x2
A x4
B x8
C x2
A x9
during lead  E-0-3-5-3-0-3-0-3-5-3-0-0-5-3-2  x5
variation of A  x6
C x4
A x 12

That should be it for the most part. Can't always catch everything Dalton
does. Corrections, Questions, Prayer Requests? Email me.

Comments about this tab

onesided_mirror - 2005-05-18

Intro
riff*
/------------\
|----0-------------------0-------------------0--------------------|
|------1-3h5p3p1-----------1-3h5p3p1-----------1-3h5p3p1----------|
|----------------0-------------------0-------------------0--------|
|-----------------------------------------------------------------|
|3----------------------------------------------------------------|
|--------------------1-------------------3------------------------|

|----0-------------------0-------------------0---------------0----|
|------1-3h5p3p1-----------1-3h5p3p1-----------1-3h5p3p1-----1----|
|----------------0-------------------0-------------------0---0----|
|------------------------------------------------------------2----|
|3-------------------0---------------------------------------3----|
|----------------------------------------1------------------------|

other than the wrong note in the intro, this is an awesome tab... High Five for you


YankBoy19888 - 2006-04-29

The last chord in the chores is a C not a G. I'm pretty sure of that. Other than that and the little mess up on the tab, good job.


Add a comment/correction

Complimentary Christian Ringtones
Dadamobile and CGR have teamed up to bring your favorite Christian artists right to your phone. Sign up today and get 10 complementary ringtones!
Tab Country
Did you know CGR has a sister site w/ country guitar tabs? Well we do! Its called Tab Country. It has a great archive with a lot of country tabs.
Rockin Tabs
Are you looking for a site that has rock guitar tabs? Then Rockintabs.com is the place for you. It is a budding site with many rock guitar tabs. Submit your tab today.
Tab Gallery
Tab Gallery has a compilation of christian, rock, and country tabs all in one place. Come visit us.