Bass Tabs
(THIRD DAY) OR BY ARTIST NAME (JENNIFER KNAPP)
0-9|A|B|C|D|E|F|G|H|I|J|K|L|M|N|O|P|Q|R|S|T|U|V|W|X|Y|Z

Join Us Today!

Don't strum alone...
be a part of the largest online Christian music community. Browse thousands of guitar tabs and chat w/ musicians like yourself.


It's Free!

This tab has not yet been rated for accuracy.Sorry, but you must be logged in to rate this tab.
Click here to log-in, or you can click here to register.
(Registration is free)

All songs owned by Integrity and Brentwood-Benson are used by permission. If you make copies of any song on this website, be sure to report your usage to CCLI.
Submitted by: KingofHearts87

Song: Dandelions
By: Five Iron Frenzy
Album: Quantity is Job #1


This is the actual way to play the song, 
I noticed that everybody else had you starting on the wrong note even. 
So here is the right way to play the song. ^_^


                        

A:----66--89-77--55--44-------7-55-77-------4-5-7777-5-4------4-5-7777-5-4--
E: --------------------------555-------------55--------------------55-------

(The turn around and into to the chorus.)

A:---9-8-7-6--------9-8-7-6-------5555-4444-7777--------  (back into the verse)
E:-------------7----------------7-------------------------4444-


(chorus)   (he slides these notes down each time)
 |--------------------------|
A:---------77-------99-----5555-4444-2222----------   2x  (now back into verse)
E:---55--------77-------------------------------2222---


(Bridge)

A:-4444-5555------------4444-5555-------4444-5555-6666-7777-8888-9999-7777-8888-
E:------------5555-7777------------7777----------------------------------------

 (Then he goes back into the turn around and then to the chorus 
  TWO last times, and then it ends as so.)


A:--5555-4444-2222--------------------
E:-----------------------2222-0000-5----

The song is very sticatoe, so listen for the hits on the bass,
but other then that besides one note in this tab out, you should be set. 
Got any issues, then deal with them. ^_^ 


Comments about this tab

No comments/corrections found. Add your own

Complimentary Christian Ringtones
Dadamobile and CGR have teamed up to bring your favorite Christian artists right to your phone. Sign up today and get 10 complementary ringtones!
Tab Country
Did you know CGR has a sister site w/ country guitar tabs? Well we do! Its called Tab Country. It has a great archive with a lot of country tabs.
Rockin Tabs
Are you looking for a site that has rock guitar tabs? Then Rockintabs.com is the place for you. It is a budding site with many rock guitar tabs. Submit your tab today.
Tab Gallery
Tab Gallery has a compilation of christian, rock, and country tabs all in one place. Come visit us.