Bass Tabs
(THIRD DAY) OR BY ARTIST NAME (JENNIFER KNAPP)
0-9|A|B|C|D|E|F|G|H|I|J|K|L|M|N|O|P|Q|R|S|T|U|V|W|X|Y|Z

Join Us Today!

Don't strum alone...
be a part of the largest online Christian music community. Browse thousands of guitar tabs and chat w/ musicians like yourself.


It's Free!

This tab has been rated a 5.00 out of 5 for accuracy. (1 vote)Sorry, but you must be logged in to rate this tab.
Click here to log-in, or you can click here to register.
(Registration is free)

All songs owned by Integrity and Brentwood-Benson are used by permission. If you make copies of any song on this website, be sure to report your usage to CCLI.
Submitted by: RockinfotheRock

This is my first tab. Don't get mad if it's wrong. Even though it's not.

Here it is!!!! (the D and G string are not used in this song... ecept for
the part where the pirate captain dude talks)

Begining Chorus:

A|-------5-----------5-------------|
E|-----5---5---0---5---5---0---5---|


Verse 1 is basicly the same as the begining chourus. Exept for one thing.
You hit the E string (open) 3x Once on the words "St. Louis", once on the 
words "St. Paul"and once on the word "Boston".
Verse 1:

A|-------5---------------5-------------|
E|-----5---5---0---0---5---5---0---5---|

Chorus 1:

A|------------------6--6--6--6-----------------------------
E|-----6--6--6--6----------------6--6--6--6---1--1--1--1--- 

A|------------------6--6--6--6---------------|
E|-----6--6--6--6----------------6---1---6---|

Verse 2:
("Never" and "all" are the words that you pluck the E string on the 1st fret.
And the you play the A string on the 7th fret when they say "parrot") 

A|-------6---------------6-7-------------|
E|-----6---6---1---1---6-----6---1---6---|

Chorus 2:

A|------------------7--7--7--7-----------------------------
E|-----7--7--7--7----------------7--7--7--7---2--2--2--2---

A|------------------7--7--7--7---------------|
E|-----7--7--7--7----------------7---2---7---|

Verse 3:
(Thekey words "up"and "wall"are where you pluck the E string on the 2nd fret)

A|-------7---------------7-------------|
E|-----7---7---2---2---7---7---2---7---|

This that one part where the pirate captain dude talks.
Thisis where you play this while he's talking.

G|-------------------------------------1-1-1-1-1-1-1-1-------------------|
D|---------------------4-4-4-4-4-4-4-4-----------------2-2-2-2-2-2-2-2---|
A|-----2-2-2-2-2-2-2-2---------------------------------------------------|
E|-----------------------------------------------------------------------|

Chorus 3:

A|------------------8--8--8--8-----------------------------
E|-----8--8--8--8----------------8--8--8--8---3--3--3--3---

A|------------------8--8--8--8---------------|
E|-----8--8--8--8----------------8---3---8---|

Hope that helped anyone

God Bless,
       RockinfotheRock


Comments about this tab

No comments/corrections found. Add your own

Complimentary Christian Ringtones
Dadamobile and CGR have teamed up to bring your favorite Christian artists right to your phone. Sign up today and get 10 complementary ringtones!
Tab Country
Did you know CGR has a sister site w/ country guitar tabs? Well we do! Its called Tab Country. It has a great archive with a lot of country tabs.
Rockin Tabs
Are you looking for a site that has rock guitar tabs? Then Rockintabs.com is the place for you. It is a budding site with many rock guitar tabs. Submit your tab today.
Tab Gallery
Tab Gallery has a compilation of christian, rock, and country tabs all in one place. Come visit us.