Bass Tabs
(THIRD DAY) OR BY ARTIST NAME (JENNIFER KNAPP)
0-9|A|B|C|D|E|F|G|H|I|J|K|L|M|N|O|P|Q|R|S|T|U|V|W|X|Y|Z

Join Us Today!

Don't strum alone...
be a part of the largest online Christian music community. Browse thousands of guitar tabs and chat w/ musicians like yourself.


It's Free!

This tab has not yet been rated for accuracy.Sorry, but you must be logged in to rate this tab.
Click here to log-in, or you can click here to register.
(Registration is free)

All songs owned by Integrity and Brentwood-Benson are used by permission. If you make copies of any song on this website, be sure to report your usage to CCLI.
Submitted by: christcore87

Relient K  Falling Out

~ hold note

Intro:
G--------
D-5~-3~--
A--------
E--------

Verse:
G-------------
D-------------
A-1-3-6-------
E-------3-1--- x4

Post Verse:
G----------------------
D----------------------
A-55-55-6666-1111------
E-----------------1111- x2

Verse x3
Post Verse x2

Break:
G--------
D--------
A-5~6~---
E--------

Chorus:
G------------
D------------
A-1-3---6----
E-----3------ x2

Bridge:
G---------------------
D--------5~-3~--------
A-1~-3~---------------
E------3~-------------

G---------------------
D--------5~-----------
A-1~-3~---------------
E------3~--111--------

G---------------------
D---------------------
A-------------6-8-----
E-4-3-1-6-5-3-----6-5-

Post Verse x2
Break x1
Chorus x2
Verse x1

Ending:
G-----------------------
D-----------------------
A-1111-3333-66666666-1~-
E-----------------------

I felt that there were a few blanks in the previous tabs of this song,
which is one of my favorite relient k songs. Such as the slow bit with
the piano that I called the bridge, you can now play along with it. For
 most of the tab I just put the notes cos you can figure out the rhythm
yourself. Great song and like always enjoy!
Any problems you can email me at christcore87@hotmail.com

Comments about this tab

No comments/corrections found. Add your own

Complimentary Christian Ringtones
Dadamobile and CGR have teamed up to bring your favorite Christian artists right to your phone. Sign up today and get 10 complementary ringtones!
Tab Country
Did you know CGR has a sister site w/ country guitar tabs? Well we do! Its called Tab Country. It has a great archive with a lot of country tabs.
Rockin Tabs
Are you looking for a site that has rock guitar tabs? Then Rockintabs.com is the place for you. It is a budding site with many rock guitar tabs. Submit your tab today.
Tab Gallery
Tab Gallery has a compilation of christian, rock, and country tabs all in one place. Come visit us.