Bass Tabs
(THIRD DAY) OR BY ARTIST NAME (JENNIFER KNAPP)
0-9|A|B|C|D|E|F|G|H|I|J|K|L|M|N|O|P|Q|R|S|T|U|V|W|X|Y|Z

Join Us Today!

Don't strum alone...
be a part of the largest online Christian music community. Browse thousands of guitar tabs and chat w/ musicians like yourself.


It's Free!

Ghoti Hook - Where Is My Mind

This tab has not yet been rated for accuracy.Sorry, but you must be logged in to rate this tab.
Click here to log-in, or you can click here to register.
(Registration is free)

All songs owned by Integrity and Brentwood-Benson are used by permission. If you make copies of any song on this website, be sure to report your usage to CCLI.
+------------------------------------------+
\  Artist     :  Ghoti Hook                 \
/  Song       :  Where Is My Mind?          /
\  Instrument :  Bass                       \
/  Tabbed by  :  Mike!    /
\___________________________________________\

--- No Bass ---
Ooooooh

G-|---------------------------------|
D-|---------------------------------|
A-|---------4-4-4-4-----------------|
E-|-0-0-0-0---------4-4-4-4-5-5-5-5-|

G-|---------------------------------|
D-|---------------------------------|
A-|---------4-4-4-4-----------------|
E-|-0-0-0-0---------4-4-4-4-5-5-5-5-|
With your feet in the air and your head on the ground
Try this trick and spin it, yeah
Your head will collapse
But there's nothing in it
And you'll ask yourself

G-|---------------------------------|
D-|---------------------------------|
A-|---------4-4-4-4-----------------|
E-|-0-0-0-0---------4-4-4-4-5-5-5-5-|
Where is my mind?
Where is my mind?
Where is my mind?

G-|---------------------------------|
D-|---------------------------------|
A-|---------4-4-4-4-----------------|
E-|-0-0-0-0---------4-4-4-4-5-5-5-5-|

G-|-------------------------|
D-|-------------------------|
A-|-------------------------|
E-|-0-0-0-0-4-4-4-4-5-5-5-5-|
Way out in the water
See it swimmin'

G-|----------------------|
D-|----------------------|
A-|-4--2-2-2-2-2-2-2-2-2-|
E-|----------------------|

G-|---------------------------------|
D-|---------------------------------|
A-|---------4-4-4-4-----------------|
E-|-0-0-0-0---------4-4-4-4-5-5-5-5-|
I was swimmin' in the Carribean
Animals were hiding behind the rocks
Except the little fish
But they told me, he swears
Tryin' to talk to me to me to me

G-|---------------------------------|
D-|---------------------------------|
A-|---------4-4-4-4-----------------|
E-|-0-0-0-0---------4-4-4-4-5-5-5-5-|
Where is my mind?
Where is my mind?
Where is my mind?

G-|---------------------------------|
D-|---------------------------------|
A-|---------4-4-4-4-----------------|
E-|-0-0-0-0---------4-4-4-4-5-5-5-5-|

G-|-------------------------|
D-|-------------------------|
A-|-------------------------|
E-|-0-0-0-0-4-4-4-4-5-5-5-5-|
Way out in the water
See it swimmin' ?

G-|----------------------------------------------------|
D-|----------------------------------------------------|
A-|-4--2-2-2-2-2-2-2-2-2-2-2-2-2-2-2-2-2-2-2-2-2-2-2-2-|
E-|----------------------------------------------------|

G-|---------------------------------|
D-|---------------------------------|
A-|---------4-4-4-4-----------------|
E-|-0-0-0-0---------4-4-4-4-5-5-5-5-|
With your feet in the air and your head on the ground
Try this trick and spin it, yeah
Your head will collapse
If there's nothing in it
And you'll ask yourself

G-|---------------------------------|
D-|---------------------------------|
A-|---------4-4-4-4-----------------|
E-|-0-0-0-0---------4-4-4-4-5-5-5-5-|
Where is my mind?
Where is my mind?
Where is my mind?

G-|---------------------------------|
D-|---------------------------------|
A-|---------4-4-4-4-----------------|
E-|-0-0-0-0---------4-4-4-4-5-5-5-5-|

G-|-------------------------|
D-|-------------------------|
A-|-------------------------|
E-|-0-0-0-0-4-4-4-4-5-5-5-5-|
Way out in the water
See it swimmin' ?

G-|----------------------|
D-|----------------------|
A-|-4--2-2-2-2-2-2-2-2-2-|
E-|----------------------|

G-|---------------------------------|
D-|---------------------------------| \ x3
A-|---------4-4-4-4-----------------| /
E-|-0-0-0-0---------4-4-4-4-5-5-5-5-|

G-|---------------------------|
D-|---------------------------|
A-|-------------------------4-|
E-|-0-0-0-0-4-4-4-4-5-5-5-5---|

Comments about this tab

cooljess3 - 2005-02-20

this is really easy to play!! and i played it with the cd, and it sounded pretty sweet!


hpy-monkey1213 - 2005-04-15

This seems like a pretty easy song 2 play and hey "cool-jess" my name is jessica 2oo!!!


BlackAttack1287 - 2005-04-23

Here's the lone ranger interlude/solo thing part :D

e-0-0-0-3-0--3-3-3-7-3--7-7-7-10-3--3-0-3-7
B------------------------------------------

bottom string is what I do, but you could do it on any one if you like.

God Bless


danfish316 - 2005-06-24

This is a really good chord chart however there is one minor correction that doesn't have to do with chords. The interlude isn't from the Lone Ranger, it's The Ride of the Valkries by Wagner(vog-ner). Otherwise everything else is good. God Bless!!!


l84nthng - 2005-07-27

Hey, this song is so simple, but it's so great. Keep rawkin out for Jesus!


jeremycampfan05 - 2006-01-15

hey "danfish" no need to be a smart-allec! the dude was just trying to help --- which he just did! mr.wagner(vonger)!!!


YESILOVEMYJESUS - 2006-02-02

i believe at the "prechorus" where it's like.. HA you're gonna burn.. the chords should be A E A E. Not E G A E... same as in another spot..


jeremycampfan05 - 2006-08-14

here, i think the solo tab-thing-i should be

e-0-0-0-3-0-3-3-3-7-3-7-7-7-10-7-0-0-0-3-0-1. or on any string, depends on what key you want it in.

thats it tell me whatcha think.

~Jessi Lynne.


Kiwi_Rocker - 2006-09-10

Hey guys,
the tab in the actual pitch of the song goes:
e|---------------------------
b|---------------------------
g|----------4--4-47-----6--34
d|2225-2-525-5--5--0-525-----
a|---------------------------
e|---------------------------

I hope that helps.


gtr4mysavior - 2007-09-20

that tab worked the best for the inturulde thingy i think thank kiwi
Tim :))


gtr4mysavior - 2007-09-20

that tab worked the best for the inturulde thingy i think thank kiwi
Tim :)


gtr4mysavior - 2007-09-20

oh yeah and i dont want to but in but jeremycampfan05 i understand where your going but theres no need to be so harsh
God bless -Tim 8)


Add a comment/correction

Complimentary Christian Ringtones
Dadamobile and CGR have teamed up to bring your favorite Christian artists right to your phone. Sign up today and get 10 complementary ringtones!
Tab Country
Did you know CGR has a sister site w/ country guitar tabs? Well we do! Its called Tab Country. It has a great archive with a lot of country tabs.
Rockin Tabs
Are you looking for a site that has rock guitar tabs? Then Rockintabs.com is the place for you. It is a budding site with many rock guitar tabs. Submit your tab today.
Tab Gallery
Tab Gallery has a compilation of christian, rock, and country tabs all in one place. Come visit us.