Bass Tabs
(THIRD DAY) OR BY ARTIST NAME (JENNIFER KNAPP)
0-9|A|B|C|D|E|F|G|H|I|J|K|L|M|N|O|P|Q|R|S|T|U|V|W|X|Y|Z

Join Us Today!

Don't strum alone...
be a part of the largest online Christian music community. Browse thousands of guitar tabs and chat w/ musicians like yourself.


It's Free!

This tab has been rated a 5.00 out of 5 for accuracy. (1 vote)Sorry, but you must be logged in to rate this tab.
Click here to log-in, or you can click here to register.
(Registration is free)

All songs owned by Integrity and Brentwood-Benson are used by permission. If you make copies of any song on this website, be sure to report your usage to CCLI.
Submitted by: beav2k2

Artist - Relient K
Song - I So Hate Consequences
Album - Mmmhmm
Tabbed by - Beav

The tuning for this song is dropped D and 1/2.  The string names are labeled 
so you can tune adequetly.  Please note I didn't tab out any rhythm, only the 
notes to play.

Intro - 

Gb|-----|--------|-------|
Db|-----|--------|-------|
Ab|--2--|-----2--|-------|
Db|-----|--0-----|-5--7--|

Verse - 

Gb|------------------|
Db|------------------|
Ab|--2---------------|
Db|-----0--5--0--7---|

PreChorus -

Gb|------------|
Db|------------|
Ab|--2--0------|
Db|--------0---|

Chorus -

Gb|--------------|    |--------|
Db|--------------|    |--------|
Ab|-----5--2--0--|x4  |--------|
Db|--5-----------|    |--5--7--|

Intro/break - 

Gb|--------|-------|
Db|--------|-------|
Ab|-----2--|-------|
Db|--0-----|-5--7--|

Verse 2/Prechorus 2 -

Gb|------------------|
Db|------------------|
Ab|--2---------------|
Db|-----0--5--0--7---|

Chorus 2 (This one sounds a little different due to a small dropout, but the 
notes are still the same.) -

Gb|--------------|    |--------|
Db|--------------|    |--------|
Ab|-----5--2--0--|x4  |--------|
Db|--5-----------|    |--5--7--|


Bridge -

Gb|--------------|------------------------------------|----------------|
Db|--------------|------------------------------------|----------------|
Ab|--2--------0--|-----------000--000--222--222--222--|----------------|
Db|-----5--0-----|--555-555---------------------------|--5--0--555--0--|

*piano part*

Gb|----------------------------------------|
Db|----------------------------------------|
Ab|----------------------222--222--000-----|
Db|--222--222--222--222-----------------5--|

*second piano part*

Ending -

Gb|----------------------------------------------------------|
Db|----------------------------------------------------------|
Ab|----------------------------------------------------------|
Db|--555--555--777--777--999--999--999--999--5--0--55555--0--|

Thanks to Deborah Chan to whose guitar tab I derrived this from.

Comments about this tab

No comments/corrections found. Add your own

Complimentary Christian Ringtones
Dadamobile and CGR have teamed up to bring your favorite Christian artists right to your phone. Sign up today and get 10 complementary ringtones!
Tab Country
Did you know CGR has a sister site w/ country guitar tabs? Well we do! Its called Tab Country. It has a great archive with a lot of country tabs.
Rockin Tabs
Are you looking for a site that has rock guitar tabs? Then Rockintabs.com is the place for you. It is a budding site with many rock guitar tabs. Submit your tab today.
Tab Gallery
Tab Gallery has a compilation of christian, rock, and country tabs all in one place. Come visit us.