Bass Tabs
(THIRD DAY) OR BY ARTIST NAME (JENNIFER KNAPP)
0-9|A|B|C|D|E|F|G|H|I|J|K|L|M|N|O|P|Q|R|S|T|U|V|W|X|Y|Z

Join Us Today!

Don't strum alone...
be a part of the largest online Christian music community. Browse thousands of guitar tabs and chat w/ musicians like yourself.


It's Free!

Ghoti Hook - True Faith

This tab has not yet been rated for accuracy.Sorry, but you must be logged in to rate this tab.
Click here to log-in, or you can click here to register.
(Registration is free)

All songs owned by Integrity and Brentwood-Benson are used by permission. If you make copies of any song on this website, be sure to report your usage to CCLI.
+------------------------------------------+
\  Artist     :  Ghoti Hook                 \
/  Song       :  True Faith                 /
\  Instrument :  Bass                       \
/  Tabbed by  :  Mike!    /
\___________________________________________\

Intro:
G-|-----------------------------------------------------------------|
D-|-----------------------------------------------------------------| \ x2
A-|-----------------3-3-3-3-3-3-3-3-----------------5-5-5-5-5-5-5-5-| /
E-|-5-5-5-5-5-5-5-5-----------------3-3-3-3-3-3-3-3-----------------|

G-|-----------------------------------------------------------------|
D-|-----------------------------------------------------------------|
A-|-----------------3-3-3-3-3-3-3-3---------------------------------|
E-|-5-5-5-5-5-5-5-5-----------------3-3-3-3-3-3-3-3-1-1-1-1-1-1-1-1-|

G-|-----------------------------------------|
D-|-----------------------------------------|
A-|-----------------------------------------|
E-|-5-5-5-5-1-1-1-1-3-3-3-3-0-0-0-0-0-0-0-3-|
I feel so extraordinary
Something's got a hold on me
G-|-------------------------------------------------|
D-|-------------------------------------------------|
A-|-----------------------------------------2-2-2-2-|
E-|-5-5-5-5-1-1-1-1-3-3-3-3-0-0-0-0-3-3-3-3---------|
I get this feeling I'm in motion
A sudden sense of liberty
G-|---------------------------------|
D-|---------------------------------|
A-|---------------------------------|
E-|-5-5-5-5-3-3-3-3-1-1-1-1-0-0-0-0-|
I don't care 'cause I'm not there
And I don't care if I'm here tomorrow
G-|---------------------------------------------------|
D-|---------------------------------2-2-2-2-2-2-2-2-2-|
A-|---------------------------------------------------|
E-|-3-3-3-3-1-1-1-1-0-0-0-0-0-0-0-0-------------------|
Again and again I've taken too much
Of the things that cost you too much
G-|-----------------------------------------------------------------|
D-|-----------------------------------------------------------------|
A-|-----------------3-3-3-3-3-3-3-3-----------------5-5-5-5-5-5-5-5-|
E-|-5-5-5-5-5-5-5-5-----------------3-3-3-3-3-3-3-3-----------------|
I used to think that the day would never come
I'd see the light in the shade of the morning sun
My morning sun is the drug that brings me near
To the childhood I lost, replaced by fear
G-|-----------------------------------------------------------------|
D-|-----------------------------------------------------------------|
A-|-----------------3-3-3-3-3-3-3-3---------------------------------|
E-|-5-5-5-5-5-5-5-5-----------------3-3-3-3-3-3-3-3-1-1-1-1-1-1-1-1-|
I used to think that the day would never come
That my life would depend on the morning sun...

G-|-----------------------------------------|
D-|-----------------------------------------|
A-|-----------------------------------------|
E-|-5-5-5-5-1-1-1-1-3-3-3-3-0-0-0-0-0-0-0-3-|
When I was a very small boy,
Very small boys talked to me
G-|-------------------------------------------------|
D-|-------------------------------------------------|
A-|-----------------------------------------2-2-2-2-|
E-|-5-5-5-5-1-1-1-1-3-3-3-3-0-0-0-0-3-3-3-3---------|
Now that we've grown up together
They're afraid of what they see
G-|---------------------------------|
D-|---------------------------------|
A-|---------------------------------|
E-|-5-5-5-5-3-3-3-3-1-1-1-1-0-0-0-0-|
That's the price that we all pay
Our valued destiny comes to nothing
G-|---------------------------------------------------|
D-|---------------------------------2-2-2-2-2-2-2-2-2-|
A-|---------------------------------------------------|
E-|-3-3-3-3-1-1-1-1-0-0-0-0-0-0-0-0-------------------|
I can't tell you where we're going
I guess there was just no way of knowing
G-|-----------------------------------------------------------------|
D-|-----------------------------------------------------------------|
A-|-----------------3-3-3-3-3-3-3-3-----------------5-5-5-5-5-5-5-5-|
E-|-5-5-5-5-5-5-5-5-----------------3-3-3-3-3-3-3-3-----------------|
I used to think that the day would never come
I'd see the light in the shade of the morning sun
My morning sun is the drug that brings me near
To the childhood I lost, replaced by fear
G-|---------------------------------------------------|
D-|---------------------------------------------------|
A-|-----------------3-3-3-3-3-3-3-3-------------------|
E-|-5-5-5-5-5-5-5-5-----------------3-3-3-3-3-3-3-3-1-|
I used to think that the day would never come
That my life would depend on the morning sun...

--- Guitar solo ---

G-|-----------------------------------------|
D-|-----------------------------------------|
A-|-----------------------------------------|
E-|-5-5-5-5-1-1-1-1-3-3-3-3-0-0-0-0-0-0-0-3-|
I feel so extraordinary
Something's got a hold on me
G-|-------------------------------------------------|
D-|-------------------------------------------------|
A-|-----------------------------------------2-2-2-2-|
E-|-5-5-5-5-1-1-1-1-3-3-3-3-0-0-0-0-3-3-3-3---------|
I get this feeling I'm in motion
A sudden sense of liberty
G-|---------------------------------|
D-|---------------------------------|
A-|---------------------------------|
E-|-5-5-5-5-3-3-3-3-1-1-1-1-0-0-0-0-|
The chances are we've gone too far
You took my time and you took my money
G-|---------------------------------------------------|
D-|---------------------------------2-2-2-2-2-2-2-2-2-|
A-|---------------------------------------------------|
E-|-3-3-3-3-1-1-1-1-0-0-0-0-0-0-0-0-------------------|
Now I fear you've left me standing
In a world that's so demanding
G-|-----------------------------------------------------------------|
D-|-----------------------------------------------------------------|
A-|-----------------3-3-3-3-3-3-3-3-----------------5-5-5-5-5-5-5-5-|
E-|-5-5-5-5-5-5-5-5-----------------3-3-3-3-3-3-3-3-----------------|
I used to think that the day would never come
I'd see the light in the shade of the morning sun
My morning sun is the drug that brings me near
To the childhood I lost, replaced by fear
G-|---------------------------------------------------|
D-|---------------------------------------------------|
A-|-----------------3-3-3-3-3-3-3-3-------------------|
E-|-5-5-5-5-5-5-5-5-----------------3-3-3-3-3-3-3-3-1-|
I used to think that the day would never come
That my life would depend on the morning sun...

Comments about this tab

No comments/corrections found. Add your own

Complimentary Christian Ringtones
Dadamobile and CGR have teamed up to bring your favorite Christian artists right to your phone. Sign up today and get 10 complementary ringtones!
Tab Country
Did you know CGR has a sister site w/ country guitar tabs? Well we do! Its called Tab Country. It has a great archive with a lot of country tabs.
Rockin Tabs
Are you looking for a site that has rock guitar tabs? Then Rockintabs.com is the place for you. It is a budding site with many rock guitar tabs. Submit your tab today.
Tab Gallery
Tab Gallery has a compilation of christian, rock, and country tabs all in one place. Come visit us.