Bass Tabs
(THIRD DAY) OR BY ARTIST NAME (JENNIFER KNAPP)
0-9|A|B|C|D|E|F|G|H|I|J|K|L|M|N|O|P|Q|R|S|T|U|V|W|X|Y|Z

Join Us Today!

Don't strum alone...
be a part of the largest online Christian music community. Browse thousands of guitar tabs and chat w/ musicians like yourself.


It's Free!

This tab has been rated a 5.00 out of 5 for accuracy. (1 vote)Sorry, but you must be logged in to rate this tab.
Click here to log-in, or you can click here to register.
(Registration is free)

All songs owned by Integrity and Brentwood-Benson are used by permission. If you make copies of any song on this website, be sure to report your usage to CCLI.
Submitted by: Bass Play3r 427

Band:Skillet
Song:Savior
(5-String Version)
STANDARD TUNING

Tabbed By Bass Play3r 427


Intro (Play 4x)
G|----------------|
D|----------------|
A|-------------1--|
E|----------------|
B|-333-33-3-3-3---|

Verse 1 (Play 2x)
G|-------------------------|
D|-------------------------|
A|-------8--8-7-7----------|
E|---8-8------------8--1-0-|
B|-3--------------3--------|

Then...
G|------------------------------------------------|
D|------------------------------------------------|
A|-------8--8-7-16----------------8--8-7-13-------|
E|---8-8-------------8--1-0---8-8-------------8-1-|
B|-3---------------3--------3---------------3-----|

Pre-Chorus ("Slap" the strings)
G|-------|
D|-------|
A|-------|
E|-------|
B|-33-33-|

Chorus 1 (Using the "Slap" tecnique, play this 2x)
G|--------------------------------------------------|
D|--------------------------------------------------|
A|--------------------------------------------------|
E|-------------------8888-6666------------1111-0000-|
B|-33-33-333-333-333-----------333-333-33-----------|

Now Go back through...

Play the Chorus Riff while John Cooper is not singing, then go into this:
(This is a part that I am not sure if I am correct or not)

Bridge 1 (Play 4x-very fast)
G|--------------|
D|--------------|
A|--------------|
E|----111-88-77-|
B|-333----------|

Then...
G|----------------|
D|----------------|
A|-------------1--|
E|----------------|
B|-333-33-3-3-3---|

Then play "Bridge 1" again.

Bridge 2 (Play 2x)
G|------------------------------------|
D|------------------------------------|
A|----------------------(14h15p14h16)-| (Optional)
E|-8--8-8-6----8--8-8-6---------------|
B|------------------------------------|

Bridge 3 (Play 4x)
G|----------------|
D|----------------|
A|----------------|
E|----------1---3-|
B|-3--3-5-3---3---|

Then play the chorus again 
(preceded by a few hard slaps to the 3rd fret on the B string)

Outro:
(Play 2x)
G|----------------|
D|----------------|
A|-------------1--|
E|----------------|
B|-333-33-3-3-3---|

Then...
G|------------------------------|
D|------------------------------|
A|-------------1----------------|
E|------------------------------|
B|-333-33-3-3-3--3333-3333-3333-|

Let me know what you think!
-The 4-String version is on the way.

Bass Play3r 427
_________
1 Cross
3 Nails
4 My Soul

Comments about this tab

No comments/corrections found. Add your own

Complimentary Christian Ringtones
Dadamobile and CGR have teamed up to bring your favorite Christian artists right to your phone. Sign up today and get 10 complementary ringtones!
Tab Country
Did you know CGR has a sister site w/ country guitar tabs? Well we do! Its called Tab Country. It has a great archive with a lot of country tabs.
Rockin Tabs
Are you looking for a site that has rock guitar tabs? Then Rockintabs.com is the place for you. It is a budding site with many rock guitar tabs. Submit your tab today.
Tab Gallery
Tab Gallery has a compilation of christian, rock, and country tabs all in one place. Come visit us.