Bass Tabs
(THIRD DAY) OR BY ARTIST NAME (JENNIFER KNAPP)
0-9|A|B|C|D|E|F|G|H|I|J|K|L|M|N|O|P|Q|R|S|T|U|V|W|X|Y|Z

Join Us Today!

Don't strum alone...
be a part of the largest online Christian music community. Browse thousands of guitar tabs and chat w/ musicians like yourself.


It's Free!

This tab has not yet been rated for accuracy.Sorry, but you must be logged in to rate this tab.
Click here to log-in, or you can click here to register.
(Registration is free)

All songs owned by Integrity and Brentwood-Benson are used by permission. If you make copies of any song on this website, be sure to report your usage to CCLI.
Submitted by: axemandan

Amy's Song
Switchfoot

Four string - Drop D tuning
Five string - Standard tuning (I am putting the 5 string tabs because i use
a five string, and i figured it out on  five string) Please check below for
the 4 string tab

5 string tab
~ Let note ring
x Mute not

Come in with drums
Verse/Outro riff
G|-----------------|
D|-----------------|
A|-----5-----------|
E|-------3-3-3/5~--| I'm not sure if he slides to the A. But it sounds better
B|3---3------------|

Chorus (repeat 1st part 2x, play 2nd part after 2nd time through)
G|-------------------------------------------------|-----|
D|-------------------------------------------------|-----|
A|------------2~--2x-------------------------------|-----|
E|------------------------3~--3x------5~--5x-------|-5~\4|
B|3~--3x-------------------------------------------|-----|

After 1st Chorus, Before 2nd Verse
G|------------------|
D|------------------|
A|------------------|
E|----0-2-------2-3-|
B|3~--------3~------|

repeat verse
repeat Chorus
rest for the bridge

PLay this on the last bar going into the last chorus
G|---------|
D|---------|
A|---------|
E|-3-3-3/5-|
B|---------|
repeat chorus
rest for the free time
play verse for outro

4 String tab
~ Let note ring
x Mute not

Come in with drums
Verse/Outro riff
G|-----------------|
D|-----------------|
A|-----5-----------|
E|0---0--5-5-5/7~--| I'm not sure if he slides to the A. But it sounds better


Chorus (repeat 1st part 2x, play 2nd part after 2nd time through)
G|-------------------------------------------------|-----|
D|-------------------------------------------------|-----|
A|------------2~--2x-------------------------------|-----|
E|0~--0x------------------5~--5x------7~--7x-------|-7~\6|

After 1st Chorus, Before 2nd Verse
G|------------------|
D|------------------|
A|------------------|
E|0~--2-4-------4-5-|

repeat verse
repeat Chorus
rest for the bridge

PLay this on the last bar going into the last chorus
G|---------|
D|---------|
A|---------|
E|-5-5-5/7-|

repeat chorus
rest for the free time
play verse for outro

That's it guys. The bass is a little hard to hear in this song. But this
should be very close.

God bless

Comments about this tab

No comments/corrections found. Add your own

Complimentary Christian Ringtones
Dadamobile and CGR have teamed up to bring your favorite Christian artists right to your phone. Sign up today and get 10 complementary ringtones!
Tab Country
Did you know CGR has a sister site w/ country guitar tabs? Well we do! Its called Tab Country. It has a great archive with a lot of country tabs.
Rockin Tabs
Are you looking for a site that has rock guitar tabs? Then Rockintabs.com is the place for you. It is a budding site with many rock guitar tabs. Submit your tab today.
Tab Gallery
Tab Gallery has a compilation of christian, rock, and country tabs all in one place. Come visit us.