Bass Tabs
(THIRD DAY) OR BY ARTIST NAME (JENNIFER KNAPP)
0-9|A|B|C|D|E|F|G|H|I|J|K|L|M|N|O|P|Q|R|S|T|U|V|W|X|Y|Z

Join Us Today!

Don't strum alone...
be a part of the largest online Christian music community. Browse thousands of guitar tabs and chat w/ musicians like yourself.


It's Free!

This tab has not yet been rated for accuracy.Sorry, but you must be logged in to rate this tab.
Click here to log-in, or you can click here to register.
(Registration is free)

All songs owned by Integrity and Brentwood-Benson are used by permission. If you make copies of any song on this website, be sure to report your usage to CCLI.
Submitted by: scheller

Majesty [Here I Am]
Delirious
World Service
C 2003 Curious?

Tabbed by scheller

Hey guys and gals!  This used to be in the archive but it got deleted somehow.
So here it is again.  The tab could be shorter but I don't have time to do it.
The little o's are repeat symbols and a 2x etc means the number of repeats. 
Any other numbers usually mean the 1st ending to a repeat, 2nd ending of a 
repeat and so on.  Thanks,
scheller   sonnyschell@hotmail.com

Intro
|------------|---------4-2-----||-------------4-2-----|------------4-2------|| 
|------------|-------------4-0-||o-0--------------4-0-|-0--------------4-0-o|| 
|------------|-----------------||o---4-2--------------|---4-2--------------o|| 
|------------|-----------------||---------------------|---------------------||

 Verse 1
|------------4-2-----|------------4-2-----|
|-0--------------4-0-|-0--------------4-0-|
|---4-2--------------|---4-2--------------|
|--------------------|--------------------|

|------------4-2-----|------------4-2-----|
|----------------4-0-|-0--------------4-0-|
|--------------------|---4-2--------------|
|-2----(2)-----------|--------------------|

|------------4-2-----|-----------|------------4-2-----|------------4-2-----|
|----------------4-0-|-----------|-0--------------4-0-|-0--------------4-0-|
|--------------------|-4----1----|---4-2--------------|---4-2--------------|
|-2----(2)-----------|-----------|--------------------|--------------------|

|------------4-2-----|------------4-2-----|------------4-2-----|-------------||
|----------------4-0-|-0--------------4-0-|----------------4-0-|-------------||
|--------------------|---4-2--------------|--------------------|-4----1------||
|-2----(2)-----------|--------------------|-2----(2)-----------|---------2---||


 Pre-Chorus
|-----------|--------------|-----------|--------------|
|-----------|--------------|-----------|--------------|
|-2----4----|-5----5-5--/5-|-2----4----|-5----5-5-----|
|-----------|--------------|-----------|--------------|

|-------------|-----------|-------------||
|-------------|-----------|-------------||
|-------------|-----------|-------------||
|-4----4-4-4--|-3----3----|-3----3-3----||


   Chorus 1
                                              1.
||---------------|--------------|------------|-------------||
||o--------------|--------------|------------|------------o||
||o-5----5s7--5--|------7s9--7--|-2----4--5--|------------o||
||---------------|-5------------|------------|-3----3--2---||


                       Verse 2
  2.
|------------4-2-----||------------4-2-----|------------4-2-----|
|----------------4-0-||-0--------------4-0-|-0--------------4-0-|
|--------------------||---4-2--------------|---4-2--------------|
|-3----(3)-----------||--------------------|--------------------|

|------------4-2-----|------------4-2-----|
|----------------4-0-|-0--------------4-0-|
|--------------------|---4-2--------------|
|-2----(2)-----------|--------------------|

|------------4-2-----|---------4-2-----|
|----------------4-0-|-------------4-0-|
|--------------------|-4----1----------|
|-2----(2)-----------|-----------------|

|------------4-2-----|------------4-2-----|
|-0--------------4-0-|-0--------------4-0-|
|---4-2--------------|---4-2--------------|
|--------------------|--------------------|

|------------4-2-----|------------4-2-----|
|----------------4-0-|-0--------------4-0-|
|--------------------|---4-2--------------|
|-2----(2)-----------|--------------------|

|------------4-2-----|------------||
|----------------4-0-|------------||
|--------------------|-4----1-----||
|-2----(2)-----------|---------2--||


 Pre-Chorus 2
|-----------|--------------|-----------|--------------|
|-----------|--------------|-----------|--------------|
|-2----4----|-5----5-5--/5-|-2----4----|-5----5-5-----|
|-----------|--------------|-----------|--------------|


|-------------|-------------|-------------||
|-------------|-------------|-------------||
|-------------|-------------|-------------||
|-4----4-4----|-3----3-3----|-3----3-3----||


   Chorus 2
                                              1.,2.,3.     4x
||---------------|--------------|------------|-------------||
||o--------------|--------------|------------|------------o||
||o-5----5s7--5--|------7s9--7--|-2----4--5--|------------o||
||---------------|-5------------|------------|-3----3--5---||


                        Bridge
  4.                                                              4x
|------------4-2-----||-------------4-2-----|------------4-2------||
|----------------4-0-||o-0--------------4-0-|-0--------------4-0-o||
|--------------------||o---4-2--------------|---4-2--------------o||
|-3----(3)-----------||---------------------|---------------------||


   Out-Chorus                                              3x
||---------------|--------------|------------|-------------||
||o--------------|--------------|------------|------------o||
||o-5----5s7--5--|------7s9--7--|-2----4--5--|------------o||
||---------------|-5------------|------------|-3----3--2---||

|--------------|--------------|------------|----------|------------|------*|
|--------------|--------------|------------|----------|------------|------*|
|-5----5s7--5--|------7s9--7--|-2----4--5--|----------|------------|------*|
|--------------|-5------------|------------|-3--------|-(3)--------|------*|

Comments about this tab

No comments/corrections found. Add your own

Complimentary Christian Ringtones
Dadamobile and CGR have teamed up to bring your favorite Christian artists right to your phone. Sign up today and get 10 complementary ringtones!
Tab Country
Did you know CGR has a sister site w/ country guitar tabs? Well we do! Its called Tab Country. It has a great archive with a lot of country tabs.
Rockin Tabs
Are you looking for a site that has rock guitar tabs? Then Rockintabs.com is the place for you. It is a budding site with many rock guitar tabs. Submit your tab today.
Tab Gallery
Tab Gallery has a compilation of christian, rock, and country tabs all in one place. Come visit us.